ISO-10303-21;
HEADER;
FILE_DESCRIPTION(('CATIA V5 STEP Exchange','CAx-IF Rec.Pracs.--- Model Styling and Organization---1.4--- 2014-01-23'),'2;1');

FILE_NAME('G:\\Konstruktion\\VB4-Greifer\\CAD-CATIA_V5_FERTIGUNGSDATEN\\02_Datenblatterstellung_extern\\01_TOS-Datenblaetter_20210315\\02_3D-data\\TOS_101_431492_00.stp','2021-06-08T10:44:14+00:00',('none'),('none'),'CATIA Version 5-6 Release 2018 SP3 HF13','CATIA V5 STEP AP214','none');

FILE_SCHEMA(('AUTOMOTIVE_DESIGN { 1 0 10303 214 1 1 1 1 }'));

ENDSEC;
DATA;
#5=PRODUCT('TOS_101_431492_00','TOS_101_431492_00','Tuenkers',(#2)) ;
#2=PRODUCT_CONTEXT(' ',#1,'mechanical') ;
#1=APPLICATION_CONTEXT('automotive design') ;
#10=PRODUCT_DEFINITION('',' ',#6,#3) ;
#3=PRODUCT_DEFINITION_CONTEXT('part definition',#1,' ') ;
#11=PRODUCT_DEFINITION_SHAPE(' ',' ',#10) ;
#300=MECHANICAL_DESIGN_GEOMETRIC_PRESENTATION_REPRESENTATION(' ',(#135,#153,#282,#297,#29),#16) ;
#19=SHAPE_REPRESENTATION(' ',(#18),#16) ;
#18=AXIS2_PLACEMENT_3D(' ',#17,$,$) ;
#34=AXIS2_PLACEMENT_3D('Cylinder Axis2P3D',#31,#32,#33) ;
#47=AXIS2_PLACEMENT_3D('Circle Axis2P3D',#45,#46,$) ;
#61=AXIS2_PLACEMENT_3D('Circle Axis2P3D',#59,#60,$) ;
#73=AXIS2_PLACEMENT_3D('Circle Axis2P3D',#71,#72,$) ;
#78=AXIS2_PLACEMENT_3D('Circle Axis2P3D',#76,#77,$) ;
#91=AXIS2_PLACEMENT_3D('Cylinder Axis2P3D',#88,#89,#90) ;
#104=AXIS2_PLACEMENT_3D('Circle Axis2P3D',#102,#103,$) ;
#118=AXIS2_PLACEMENT_3D('Circle Axis2P3D',#116,#117,$) ;
#138=AXIS2_PLACEMENT_3D('Circle Axis2P3D',#136,#137,$) ;
#143=AXIS2_PLACEMENT_3D('Circle Axis2P3D',#141,#142,$) ;
#157=AXIS2_PLACEMENT_3D('Cone Axis2P3D',#154,#155,#156) ;
#168=AXIS2_PLACEMENT_3D('Circle Axis2P3D',#166,#167,$) ;
#187=AXIS2_PLACEMENT_3D('Circle Axis2P3D',#185,#186,$) ;
#200=AXIS2_PLACEMENT_3D('Cylinder Axis2P3D',#197,#198,#199) ;
#213=AXIS2_PLACEMENT_3D('Circle Axis2P3D',#211,#212,$) ;
#227=AXIS2_PLACEMENT_3D('Circle Axis2P3D',#225,#226,$) ;
#239=AXIS2_PLACEMENT_3D('Circle Axis2P3D',#237,#238,$) ;
#244=AXIS2_PLACEMENT_3D('Circle Axis2P3D',#242,#243,$) ;
#257=AXIS2_PLACEMENT_3D('Plane Axis2P3D',#254,#255,#256) ;
#271=AXIS2_PLACEMENT_3D('Plane Axis2P3D',#268,#269,#270) ;
#286=AXIS2_PLACEMENT_3D('Plane Axis2P3D',#283,#284,#285) ;
#17=CARTESIAN_POINT(' ',(0.,0.,0.)) ;
#31=CARTESIAN_POINT('Axis2P3D Location',(0.,0.,29.3000000007)) ;
#36=CARTESIAN_POINT('Line Origine',(4.79425538604,-8.7758256189,-2.5)) ;
#40=CARTESIAN_POINT('Vertex',(4.79425538604,-8.7758256189,-5.)) ;
#42=CARTESIAN_POINT('Vertex',(4.79425538604,-8.7758256189,0.)) ;
#45=CARTESIAN_POINT('Axis2P3D Location',(0.,0.,0.)) ;
#49=CARTESIAN_POINT('Vertex',(-4.79425538604,8.7758256189,0.)) ;
#52=CARTESIAN_POINT('Line Origine',(-4.79425538604,8.7758256189,-2.5)) ;
#56=CARTESIAN_POINT('Vertex',(-4.79425538604,8.7758256189,-5.)) ;
#59=CARTESIAN_POINT('Axis2P3D Location',(0.,0.,-5.)) ;
#71=CARTESIAN_POINT('Axis2P3D Location',(0.,0.,0.)) ;
#76=CARTESIAN_POINT('Axis2P3D Location',(0.,0.,-5.)) ;
#88=CARTESIAN_POINT('Axis2P3D Location',(0.,0.,29.3000000007)) ;
#93=CARTESIAN_POINT('Line Origine',(2.8525819547,-5.22161624325,31.675)) ;
#97=CARTESIAN_POINT('Vertex',(2.8525819547,-5.22161624325,0.)) ;
#99=CARTESIAN_POINT('Vertex',(2.8525819547,-5.22161624325,63.35)) ;
#102=CARTESIAN_POINT('Axis2P3D Location',(0.,0.,63.35)) ;
#106=CARTESIAN_POINT('Vertex',(-2.8525819547,5.22161624325,63.35)) ;
#109=CARTESIAN_POINT('Line Origine',(-2.8525819547,5.22161624325,31.675)) ;
#113=CARTESIAN_POINT('Vertex',(-2.8525819547,5.22161624325,0.)) ;
#116=CARTESIAN_POINT('Axis2P3D Location',(0.,0.,0.)) ;
#136=CARTESIAN_POINT('Axis2P3D Location',(0.,0.,63.35)) ;
#141=CARTESIAN_POINT('Axis2P3D Location',(0.,0.,0.)) ;
#154=CARTESIAN_POINT('Axis2P3D Location',(0.,0.,63.6)) ;
#159=CARTESIAN_POINT('Line Origine',(2.79265376237,-5.11191842301,63.475)) ;
#163=CARTESIAN_POINT('Vertex',(2.73272557004,-5.00222060278,63.6)) ;
#166=CARTESIAN_POINT('Axis2P3D Location',(0.,0.,63.6)) ;
#170=CARTESIAN_POINT('Vertex',(-2.73272557004,5.00222060278,63.6)) ;
#173=CARTESIAN_POINT('Line Origine',(-2.79265376237,5.11191842301,63.475)) ;
#185=CARTESIAN_POINT('Axis2P3D Location',(0.,0.,63.6)) ;
#197=CARTESIAN_POINT('Axis2P3D Location',(0.,0.,29.3000000007)) ;
#202=CARTESIAN_POINT('Line Origine',(1.96564470828,-3.59808850375,29.3)) ;
#206=CARTESIAN_POINT('Vertex',(1.96564470828,-3.59808850375,63.6)) ;
#208=CARTESIAN_POINT('Vertex',(1.96564470828,-3.59808850375,-5.)) ;
#211=CARTESIAN_POINT('Axis2P3D Location',(0.,0.,-5.)) ;
#215=CARTESIAN_POINT('Vertex',(-1.96564470828,3.59808850375,-5.)) ;
#218=CARTESIAN_POINT('Line Origine',(-1.96564470828,3.59808850375,29.3)) ;
#222=CARTESIAN_POINT('Vertex',(-1.96564470828,3.59808850375,63.6)) ;
#225=CARTESIAN_POINT('Axis2P3D Location',(0.,0.,63.6)) ;
#237=CARTESIAN_POINT('Axis2P3D Location',(0.,0.,-5.)) ;
#242=CARTESIAN_POINT('Axis2P3D Location',(0.,0.,63.6)) ;
#254=CARTESIAN_POINT('Axis2P3D Location',(0.,10.,-5.)) ;
#268=CARTESIAN_POINT('Axis2P3D Location',(0.,5.95,0.)) ;
#283=CARTESIAN_POINT('Axis2P3D Location',(0.,4.1,63.6)) ;
#32=DIRECTION('Axis2P3D Direction',(0.,0.,1.)) ;
#33=DIRECTION('Axis2P3D XDirection',(-0.479425538604,0.87758256189,0.)) ;
#37=DIRECTION('Vector Direction',(0.,0.,1.)) ;
#46=DIRECTION('Axis2P3D Direction',(0.,0.,1.)) ;
#53=DIRECTION('Vector Direction',(0.,0.,1.)) ;
#60=DIRECTION('Axis2P3D Direction',(0.,0.,1.)) ;
#72=DIRECTION('Axis2P3D Direction',(0.,0.,1.)) ;
#77=DIRECTION('Axis2P3D Direction',(0.,0.,1.)) ;
#89=DIRECTION('Axis2P3D Direction',(0.,0.,1.)) ;
#90=DIRECTION('Axis2P3D XDirection',(-0.479425538604,0.87758256189,0.)) ;
#94=DIRECTION('Vector Direction',(0.,0.,1.)) ;
#103=DIRECTION('Axis2P3D Direction',(0.,0.,1.)) ;
#110=DIRECTION('Vector Direction',(0.,0.,1.)) ;
#117=DIRECTION('Axis2P3D Direction',(0.,0.,1.)) ;
#137=DIRECTION('Axis2P3D Direction',(0.,0.,1.)) ;
#142=DIRECTION('Axis2P3D Direction',(0.,0.,1.)) ;
#155=DIRECTION('Axis2P3D Direction',(-0.,-0.,-1.)) ;
#156=DIRECTION('Axis2P3D XDirection',(-0.479425538604,0.87758256189,0.)) ;
#160=DIRECTION('Vector Direction',(0.339005049421,-0.620544580564,-0.707106781187)) ;
#167=DIRECTION('Axis2P3D Direction',(0.,0.,-1.)) ;
#174=DIRECTION('Vector Direction',(-0.339005049421,0.620544580564,-0.707106781187)) ;
#186=DIRECTION('Axis2P3D Direction',(0.,0.,-1.)) ;
#198=DIRECTION('Axis2P3D Direction',(0.,0.,1.)) ;
#199=DIRECTION('Axis2P3D XDirection',(-0.479425538604,0.87758256189,0.)) ;
#203=DIRECTION('Vector Direction',(0.,0.,1.)) ;
#212=DIRECTION('Axis2P3D Direction',(0.,0.,1.)) ;
#219=DIRECTION('Vector Direction',(0.,0.,1.)) ;
#226=DIRECTION('Axis2P3D Direction',(0.,0.,1.)) ;
#238=DIRECTION('Axis2P3D Direction',(0.,0.,1.)) ;
#243=DIRECTION('Axis2P3D Direction',(0.,0.,1.)) ;
#255=DIRECTION('Axis2P3D Direction',(0.,0.,1.)) ;
#256=DIRECTION('Axis2P3D XDirection',(1.,0.,0.)) ;
#269=DIRECTION('Axis2P3D Direction',(0.,0.,1.)) ;
#270=DIRECTION('Axis2P3D XDirection',(1.,0.,0.)) ;
#284=DIRECTION('Axis2P3D Direction',(0.,0.,1.)) ;
#285=DIRECTION('Axis2P3D XDirection',(1.,0.,0.)) ;
#8=PRODUCT_RELATED_PRODUCT_CATEGORY('part',$,(#5)) ;
#7=PRODUCT_CATEGORY('part','specification') ;
#29=STYLED_ITEM(' ',(#28),#21) ;
#28=PRESENTATION_STYLE_ASSIGNMENT((#27)) ;
#134=PRESENTATION_STYLE_ASSIGNMENT((#133)) ;
#27=SURFACE_STYLE_USAGE(.BOTH.,#26) ;
#133=SURFACE_STYLE_USAGE(.BOTH.,#132) ;
#26=SURFACE_SIDE_STYLE(' ',(#25)) ;
#132=SURFACE_SIDE_STYLE(' ',(#131)) ;
#25=SURFACE_STYLE_FILL_AREA(#24) ;
#131=SURFACE_STYLE_FILL_AREA(#130) ;
#24=FILL_AREA_STYLE(' ',(#23)) ;
#130=FILL_AREA_STYLE(' ',(#129)) ;
#23=FILL_AREA_STYLE_COLOUR(' ',#22) ;
#129=FILL_AREA_STYLE_COLOUR(' ',#128) ;
#38=VECTOR('Line Direction',#37,1.) ;
#54=VECTOR('Line Direction',#53,1.) ;
#95=VECTOR('Line Direction',#94,1.) ;
#111=VECTOR('Line Direction',#110,1.) ;
#161=VECTOR('Line Direction',#160,1.) ;
#175=VECTOR('Line Direction',#174,1.) ;
#204=VECTOR('Line Direction',#203,1.) ;
#220=VECTOR('Line Direction',#219,1.) ;
#15=UNCERTAINTY_MEASURE_WITH_UNIT(LENGTH_MEASURE(0.005),#12,'distance_accuracy_value','CONFUSED CURVE UNCERTAINTY') ;
#299=SHAPE_REPRESENTATION_RELATIONSHIP(' ',' ',#19,#298) ;
#65=ORIENTED_EDGE('',*,*,#44,.T.) ;
#66=ORIENTED_EDGE('',*,*,#51,.F.) ;
#67=ORIENTED_EDGE('',*,*,#58,.F.) ;
#68=ORIENTED_EDGE('',*,*,#63,.T.) ;
#82=ORIENTED_EDGE('',*,*,#58,.T.) ;
#83=ORIENTED_EDGE('',*,*,#75,.F.) ;
#84=ORIENTED_EDGE('',*,*,#44,.F.) ;
#85=ORIENTED_EDGE('',*,*,#80,.T.) ;
#122=ORIENTED_EDGE('',*,*,#101,.T.) ;
#123=ORIENTED_EDGE('',*,*,#108,.F.) ;
#124=ORIENTED_EDGE('',*,*,#115,.F.) ;
#125=ORIENTED_EDGE('',*,*,#120,.T.) ;
#147=ORIENTED_EDGE('',*,*,#115,.T.) ;
#148=ORIENTED_EDGE('',*,*,#140,.F.) ;
#149=ORIENTED_EDGE('',*,*,#101,.F.) ;
#150=ORIENTED_EDGE('',*,*,#145,.T.) ;
#179=ORIENTED_EDGE('',*,*,#165,.T.) ;
#180=ORIENTED_EDGE('',*,*,#172,.F.) ;
#181=ORIENTED_EDGE('',*,*,#177,.F.) ;
#182=ORIENTED_EDGE('',*,*,#108,.T.) ;
#191=ORIENTED_EDGE('',*,*,#177,.T.) ;
#192=ORIENTED_EDGE('',*,*,#189,.F.) ;
#193=ORIENTED_EDGE('',*,*,#165,.F.) ;
#194=ORIENTED_EDGE('',*,*,#140,.T.) ;
#231=ORIENTED_EDGE('',*,*,#210,.T.) ;
#232=ORIENTED_EDGE('',*,*,#217,.F.) ;
#233=ORIENTED_EDGE('',*,*,#224,.F.) ;
#234=ORIENTED_EDGE('',*,*,#229,.T.) ;
#248=ORIENTED_EDGE('',*,*,#224,.T.) ;
#249=ORIENTED_EDGE('',*,*,#241,.F.) ;
#250=ORIENTED_EDGE('',*,*,#210,.F.) ;
#251=ORIENTED_EDGE('',*,*,#246,.T.) ;
#260=ORIENTED_EDGE('',*,*,#63,.F.) ;
#261=ORIENTED_EDGE('',*,*,#80,.F.) ;
#264=ORIENTED_EDGE('',*,*,#241,.T.) ;
#265=ORIENTED_EDGE('',*,*,#217,.T.) ;
#274=ORIENTED_EDGE('',*,*,#75,.T.) ;
#275=ORIENTED_EDGE('',*,*,#51,.T.) ;
#278=ORIENTED_EDGE('',*,*,#120,.F.) ;
#279=ORIENTED_EDGE('',*,*,#145,.F.) ;
#289=ORIENTED_EDGE('',*,*,#189,.T.) ;
#290=ORIENTED_EDGE('',*,*,#172,.T.) ;
#293=ORIENTED_EDGE('',*,*,#229,.F.) ;
#294=ORIENTED_EDGE('',*,*,#246,.F.) ;
#266=FACE_BOUND('',#263,.T.) ;
#280=FACE_BOUND('',#277,.T.) ;
#295=FACE_BOUND('',#292,.T.) ;
#30=CLOSED_SHELL('Closed Shell',(#70,#87,#127,#152,#184,#196,#236,#253,#267,#281,#296)) ;
#298=ADVANCED_BREP_SHAPE_REPRESENTATION('NONE',(#21),#16) ;
#70=ADVANCED_FACE('PartBody',(#69),#35,.T.) ;
#87=ADVANCED_FACE('PartBody',(#86),#35,.T.) ;
#127=ADVANCED_FACE('PartBody',(#126),#92,.T.) ;
#152=ADVANCED_FACE('PartBody',(#151),#92,.T.) ;
#184=ADVANCED_FACE('PartBody',(#183),#158,.T.) ;
#196=ADVANCED_FACE('PartBody',(#195),#158,.T.) ;
#236=ADVANCED_FACE('PartBody',(#235),#201,.F.) ;
#253=ADVANCED_FACE('PartBody',(#252),#201,.F.) ;
#267=ADVANCED_FACE('PartBody',(#262,#266),#258,.F.) ;
#281=ADVANCED_FACE('PartBody',(#276,#280),#272,.T.) ;
#296=ADVANCED_FACE('PartBody',(#291,#295),#287,.T.) ;
#4=APPLICATION_PROTOCOL_DEFINITION('international standard','automotive_design',2001,#1) ;
#21=MANIFOLD_SOLID_BREP('PartBody',#30) ;
#48=CIRCLE('generated circle',#47,10.) ;
#62=CIRCLE('generated circle',#61,10.) ;
#74=CIRCLE('generated circle',#73,10.) ;
#79=CIRCLE('generated circle',#78,10.) ;
#105=CIRCLE('generated circle',#104,5.95) ;
#119=CIRCLE('generated circle',#118,5.95) ;
#139=CIRCLE('generated circle',#138,5.95) ;
#144=CIRCLE('generated circle',#143,5.95) ;
#169=CIRCLE('generated circle',#168,5.7) ;
#188=CIRCLE('generated circle',#187,5.7) ;
#214=CIRCLE('generated circle',#213,4.1) ;
#228=CIRCLE('generated circle',#227,4.1) ;
#240=CIRCLE('generated circle',#239,4.1) ;
#245=CIRCLE('generated circle',#244,4.1) ;
#22=COLOUR_RGB('Colour',0.823529411765,0.823529411765,1.) ;
#158=CONICAL_SURFACE('Cone',#157,5.7,0.785398163397) ;
#135=OVER_RIDING_STYLED_ITEM(' ',(#134),#127,#29) ;
#153=OVER_RIDING_STYLED_ITEM(' ',(#134),#152,#29) ;
#282=OVER_RIDING_STYLED_ITEM(' ',(#134),#281,#29) ;
#297=OVER_RIDING_STYLED_ITEM(' ',(#134),#296,#29) ;
#35=CYLINDRICAL_SURFACE('generated cylinder',#34,10.) ;
#92=CYLINDRICAL_SURFACE('generated cylinder',#91,5.95) ;
#201=CYLINDRICAL_SURFACE('generated cylinder',#200,4.1) ;
#128=DRAUGHTING_PRE_DEFINED_COLOUR('blue') ;
#44=EDGE_CURVE('',#41,#43,#39,.T.) ;
#51=EDGE_CURVE('',#50,#43,#48,.T.) ;
#58=EDGE_CURVE('',#57,#50,#55,.T.) ;
#63=EDGE_CURVE('',#57,#41,#62,.T.) ;
#75=EDGE_CURVE('',#43,#50,#74,.T.) ;
#80=EDGE_CURVE('',#41,#57,#79,.T.) ;
#101=EDGE_CURVE('',#98,#100,#96,.T.) ;
#108=EDGE_CURVE('',#107,#100,#105,.T.) ;
#115=EDGE_CURVE('',#114,#107,#112,.T.) ;
#120=EDGE_CURVE('',#114,#98,#119,.T.) ;
#140=EDGE_CURVE('',#100,#107,#139,.T.) ;
#145=EDGE_CURVE('',#98,#114,#144,.T.) ;
#165=EDGE_CURVE('',#100,#164,#162,.F.) ;
#172=EDGE_CURVE('',#171,#164,#169,.F.) ;
#177=EDGE_CURVE('',#107,#171,#176,.F.) ;
#189=EDGE_CURVE('',#164,#171,#188,.F.) ;
#210=EDGE_CURVE('',#207,#209,#205,.F.) ;
#217=EDGE_CURVE('',#216,#209,#214,.T.) ;
#224=EDGE_CURVE('',#223,#216,#221,.F.) ;
#229=EDGE_CURVE('',#223,#207,#228,.T.) ;
#241=EDGE_CURVE('',#209,#216,#240,.T.) ;
#246=EDGE_CURVE('',#207,#223,#245,.T.) ;
#64=EDGE_LOOP('',(#65,#66,#67,#68)) ;
#81=EDGE_LOOP('',(#82,#83,#84,#85)) ;
#121=EDGE_LOOP('',(#122,#123,#124,#125)) ;
#146=EDGE_LOOP('',(#147,#148,#149,#150)) ;
#178=EDGE_LOOP('',(#179,#180,#181,#182)) ;
#190=EDGE_LOOP('',(#191,#192,#193,#194)) ;
#230=EDGE_LOOP('',(#231,#232,#233,#234)) ;
#247=EDGE_LOOP('',(#248,#249,#250,#251)) ;
#259=EDGE_LOOP('',(#260,#261)) ;
#263=EDGE_LOOP('',(#264,#265)) ;
#273=EDGE_LOOP('',(#274,#275)) ;
#277=EDGE_LOOP('',(#278,#279)) ;
#288=EDGE_LOOP('',(#289,#290)) ;
#292=EDGE_LOOP('',(#293,#294)) ;
#69=FACE_OUTER_BOUND('',#64,.T.) ;
#86=FACE_OUTER_BOUND('',#81,.T.) ;
#126=FACE_OUTER_BOUND('',#121,.T.) ;
#151=FACE_OUTER_BOUND('',#146,.T.) ;
#183=FACE_OUTER_BOUND('',#178,.T.) ;
#195=FACE_OUTER_BOUND('',#190,.T.) ;
#235=FACE_OUTER_BOUND('',#230,.T.) ;
#252=FACE_OUTER_BOUND('',#247,.T.) ;
#262=FACE_OUTER_BOUND('',#259,.T.) ;
#276=FACE_OUTER_BOUND('',#273,.T.) ;
#291=FACE_OUTER_BOUND('',#288,.T.) ;
#39=LINE('Line',#36,#38) ;
#55=LINE('Line',#52,#54) ;
#96=LINE('Line',#93,#95) ;
#112=LINE('Line',#109,#111) ;
#162=LINE('Line',#159,#161) ;
#176=LINE('Line',#173,#175) ;
#205=LINE('Line',#202,#204) ;
#221=LINE('Line',#218,#220) ;
#258=PLANE('',#257) ;
#272=PLANE('',#271) ;
#287=PLANE('',#286) ;
#9=PRODUCT_CATEGORY_RELATIONSHIP(' ',' ',#7,#8) ;
#6=PRODUCT_DEFINITION_FORMATION_WITH_SPECIFIED_SOURCE('00',' ',#5,.NOT_KNOWN.) ;
#20=SHAPE_DEFINITION_REPRESENTATION(#11,#19) ;
#41=VERTEX_POINT('',#40) ;
#43=VERTEX_POINT('',#42) ;
#50=VERTEX_POINT('',#49) ;
#57=VERTEX_POINT('',#56) ;
#98=VERTEX_POINT('',#97) ;
#100=VERTEX_POINT('',#99) ;
#107=VERTEX_POINT('',#106) ;
#114=VERTEX_POINT('',#113) ;
#164=VERTEX_POINT('',#163) ;
#171=VERTEX_POINT('',#170) ;
#207=VERTEX_POINT('',#206) ;
#209=VERTEX_POINT('',#208) ;
#216=VERTEX_POINT('',#215) ;
#223=VERTEX_POINT('',#222) ;
#12=(LENGTH_UNIT()NAMED_UNIT(*)SI_UNIT(.MILLI.,.METRE.)) ;
#13=(NAMED_UNIT(*)PLANE_ANGLE_UNIT()SI_UNIT($,.RADIAN.)) ;
#14=(NAMED_UNIT(*)SI_UNIT($,.STERADIAN.)SOLID_ANGLE_UNIT()) ;
#16=(GEOMETRIC_REPRESENTATION_CONTEXT(3)GLOBAL_UNCERTAINTY_ASSIGNED_CONTEXT((#15))GLOBAL_UNIT_ASSIGNED_CONTEXT((#12,#13,#14))REPRESENTATION_CONTEXT(' ',' ')) ;
ENDSEC;
END-ISO-10303-21;
