ISO-10303-21;
HEADER;
FILE_DESCRIPTION(('CATIA V5 STEP Exchange','CAx-IF Rec.Pracs.--- Model Styling and Organization---1.4--- 2014-01-23'),'2;1');

FILE_NAME('G:\\Konstruktion\\VB4-Greifer\\CAD-CATIA_V5_FERTIGUNGSDATEN\\02_Datenblatterstellung_extern\\01_TOS-Datenblaetter_20210315\\02_3D-data\\TOS_103_458014_00.stp','2021-06-08T10:44:14+00:00',('none'),('none'),'CATIA Version 5-6 Release 2018 SP3 HF13','CATIA V5 STEP AP214','none');

FILE_SCHEMA(('AUTOMOTIVE_DESIGN { 1 0 10303 214 1 1 1 1 }'));

ENDSEC;
DATA;
#5=PRODUCT('TOS_103_458014_00','TOS_103_458014_00','Tuenkers',(#2)) ;
#2=PRODUCT_CONTEXT(' ',#1,'mechanical') ;
#1=APPLICATION_CONTEXT('automotive design') ;
#10=PRODUCT_DEFINITION('',' ',#6,#3) ;
#3=PRODUCT_DEFINITION_CONTEXT('part definition',#1,' ') ;
#11=PRODUCT_DEFINITION_SHAPE(' ',' ',#10) ;
#378=MECHANICAL_DESIGN_GEOMETRIC_PRESENTATION_REPRESENTATION(' ',(#128,#208,#221,#341,#29),#16) ;
#19=SHAPE_REPRESENTATION(' ',(#18),#16) ;
#18=AXIS2_PLACEMENT_3D(' ',#17,$,$) ;
#34=AXIS2_PLACEMENT_3D('Cone Axis2P3D',#31,#32,#33) ;
#47=AXIS2_PLACEMENT_3D('Circle Axis2P3D',#45,#46,$) ;
#61=AXIS2_PLACEMENT_3D('Circle Axis2P3D',#59,#60,$) ;
#74=AXIS2_PLACEMENT_3D('Cone Axis2P3D',#71,#72,#73) ;
#78=AXIS2_PLACEMENT_3D('Circle Axis2P3D',#76,#77,$) ;
#83=AXIS2_PLACEMENT_3D('Circle Axis2P3D',#81,#82,$) ;
#96=AXIS2_PLACEMENT_3D('Plane Axis2P3D',#93,#94,#95) ;
#104=AXIS2_PLACEMENT_3D('Circle Axis2P3D',#102,#103,$) ;
#113=AXIS2_PLACEMENT_3D('Circle Axis2P3D',#111,#112,$) ;
#132=AXIS2_PLACEMENT_3D('Cone Axis2P3D',#129,#130,#131) ;
#150=AXIS2_PLACEMENT_3D('Circle Axis2P3D',#148,#149,$) ;
#163=AXIS2_PLACEMENT_3D('Cone Axis2P3D',#160,#161,#162) ;
#167=AXIS2_PLACEMENT_3D('Circle Axis2P3D',#165,#166,$) ;
#180=AXIS2_PLACEMENT_3D('Cylinder Axis2P3D',#177,#178,#179) ;
#198=AXIS2_PLACEMENT_3D('Circle Axis2P3D',#196,#197,$) ;
#211=AXIS2_PLACEMENT_3D('Circle Axis2P3D',#209,#210,$) ;
#225=AXIS2_PLACEMENT_3D('Cone Axis2P3D',#222,#223,#224) ;
#236=AXIS2_PLACEMENT_3D('Circle Axis2P3D',#234,#235,$) ;
#256=AXIS2_PLACEMENT_3D('Cone Axis2P3D',#253,#254,#255) ;
#260=AXIS2_PLACEMENT_3D('Circle Axis2P3D',#258,#259,$) ;
#273=AXIS2_PLACEMENT_3D('Cylinder Axis2P3D',#270,#271,#272) ;
#277=AXIS2_PLACEMENT_3D('Circle Axis2P3D',#275,#276,$) ;
#303=AXIS2_PLACEMENT_3D('Circle Axis2P3D',#301,#302,$) ;
#316=AXIS2_PLACEMENT_3D('Plane Axis2P3D',#313,#314,#315) ;
#324=AXIS2_PLACEMENT_3D('Circle Axis2P3D',#322,#323,$) ;
#333=AXIS2_PLACEMENT_3D('Circle Axis2P3D',#331,#332,$) ;
#345=AXIS2_PLACEMENT_3D('Cone Axis2P3D',#342,#343,#344) ;
#367=AXIS2_PLACEMENT_3D('Cone Axis2P3D',#364,#365,#366) ;
#17=CARTESIAN_POINT(' ',(0.,0.,0.)) ;
#31=CARTESIAN_POINT('Axis2P3D Location',(-8.48210390814E-014,8.43769498715E-015,65.35)) ;
#36=CARTESIAN_POINT('Line Origine',(-5.875,-1.3211653993E-014,59.475)) ;
#40=CARTESIAN_POINT('Vertex',(-5.75,6.35246352226E-007,59.6)) ;
#42=CARTESIAN_POINT('Vertex',(-6.,7.34788079488E-016,59.35)) ;
#45=CARTESIAN_POINT('Axis2P3D Location',(4.44089209849E-016,-2.22044604925E-015,59.35)) ;
#49=CARTESIAN_POINT('Vertex',(6.,-1.46957615898E-015,59.35)) ;
#52=CARTESIAN_POINT('Line Origine',(5.875,-1.30451205393E-014,59.475)) ;
#56=CARTESIAN_POINT('Vertex',(5.75,-1.18629921409E-015,59.6)) ;
#59=CARTESIAN_POINT('Axis2P3D Location',(-3.10862446895E-015,-1.7763568394E-015,59.6)) ;
#71=CARTESIAN_POINT('Axis2P3D Location',(-1.15019105351E-013,6.30606677987E-014,65.35)) ;
#76=CARTESIAN_POINT('Axis2P3D Location',(2.22044604925E-015,-8.88178419701E-016,59.35)) ;
#81=CARTESIAN_POINT('Axis2P3D Location',(-2.6645352591E-015,1.7763568394E-015,59.6)) ;
#93=CARTESIAN_POINT('Axis2P3D Location',(0.,0.,59.6)) ;
#102=CARTESIAN_POINT('Axis2P3D Location',(1.24344978758E-014,-1.63182219582E-014,59.6)) ;
#106=CARTESIAN_POINT('Vertex',(-4.35,2.21635564323E-007,59.6)) ;
#108=CARTESIAN_POINT('Vertex',(4.35,-1.92936017064E-015,59.6)) ;
#111=CARTESIAN_POINT('Axis2P3D Location',(-1.75137682135E-014,-1.64313007645E-014,59.6)) ;
#129=CARTESIAN_POINT('Axis2P3D Location',(4.95248286825E-013,3.35464989121E-013,55.25)) ;
#134=CARTESIAN_POINT('Line Origine',(4.225,9.88242055243E-015,59.475)) ;
#138=CARTESIAN_POINT('Vertex',(4.1,-1.0042103753E-015,59.35)) ;
#141=CARTESIAN_POINT('Line Origine',(-4.225,2.1526673532E-007,59.475)) ;
#145=CARTESIAN_POINT('Vertex',(-4.1,5.0210518765E-016,59.35)) ;
#148=CARTESIAN_POINT('Axis2P3D Location',(6.26040014383E-026,4.44089209892E-016,59.35)) ;
#160=CARTESIAN_POINT('Axis2P3D Location',(7.28306304154E-015,1.89306348375E-012,55.25)) ;
#165=CARTESIAN_POINT('Axis2P3D Location',(7.30485198235E-028,3.10862446914E-015,59.35)) ;
#177=CARTESIAN_POINT('Axis2P3D Location',(0.,0.,29.8)) ;
#182=CARTESIAN_POINT('Line Origine',(-6.,7.34788079488E-016,29.8)) ;
#186=CARTESIAN_POINT('Vertex',(-6.,7.34788079488E-016,0.25)) ;
#189=CARTESIAN_POINT('Line Origine',(6.,0.,29.8)) ;
#193=CARTESIAN_POINT('Vertex',(6.,-1.46957615898E-015,0.25)) ;
#196=CARTESIAN_POINT('Axis2P3D Location',(0.,0.,0.25)) ;
#209=CARTESIAN_POINT('Axis2P3D Location',(0.,0.,0.25)) ;
#222=CARTESIAN_POINT('Axis2P3D Location',(-4.30766533555E-014,5.28466159722E-014,-5.75)) ;
#227=CARTESIAN_POINT('Line Origine',(-5.875,6.63371624521E-007,0.125)) ;
#231=CARTESIAN_POINT('Vertex',(-5.75,6.35247245955E-007,0.)) ;
#234=CARTESIAN_POINT('Axis2P3D Location',(-2.22044604925E-015,1.7763568394E-015,-5.06261699229E-014)) ;
#238=CARTESIAN_POINT('Vertex',(5.75,-4.09143096857E-016,0.)) ;
#241=CARTESIAN_POINT('Line Origine',(5.875,-1.12687636999E-014,0.125)) ;
#253=CARTESIAN_POINT('Axis2P3D Location',(-9.54791801178E-014,1.27009514017E-013,-5.75)) ;
#258=CARTESIAN_POINT('Axis2P3D Location',(-3.5527136788E-015,4.4408920985E-015,8.97060203897E-014)) ;
#270=CARTESIAN_POINT('Axis2P3D Location',(0.,0.,29.8)) ;
#275=CARTESIAN_POINT('Axis2P3D Location',(0.,0.,0.25)) ;
#279=CARTESIAN_POINT('Vertex',(-4.1,5.0210518765E-016,0.25)) ;
#281=CARTESIAN_POINT('Vertex',(4.1,-1.0042103753E-015,0.25)) ;
#284=CARTESIAN_POINT('Line Origine',(-4.1,5.0210518765E-016,29.8)) ;
#289=CARTESIAN_POINT('Line Origine',(4.1,-1.0042103753E-015,29.8)) ;
#301=CARTESIAN_POINT('Axis2P3D Location',(0.,0.,0.25)) ;
#313=CARTESIAN_POINT('Axis2P3D Location',(0.,0.,0.)) ;
#322=CARTESIAN_POINT('Axis2P3D Location',(-1.18585696818E-014,-5.21804821574E-015,0.)) ;
#326=CARTESIAN_POINT('Vertex',(4.35,-1.73472419664E-015,0.)) ;
#328=CARTESIAN_POINT('Vertex',(-4.35,-2.24698448404E-007,0.)) ;
#331=CARTESIAN_POINT('Axis2P3D Location',(-8.881784197E-015,-6.69281481379E-016,0.)) ;
#342=CARTESIAN_POINT('Axis2P3D Location',(3.49587025994E-013,2.31814567542E-014,4.35)) ;
#347=CARTESIAN_POINT('Line Origine',(4.225,-7.06751730308E-016,0.125)) ;
#352=CARTESIAN_POINT('Line Origine',(-4.225,9.40925072984E-016,0.125)) ;
#364=CARTESIAN_POINT('Axis2P3D Location',(1.96198612912E-013,9.62030455298E-013,4.35)) ;
#32=DIRECTION('Axis2P3D Direction',(1.42108547152E-014,-1.7763568394E-015,-1.)) ;
#33=DIRECTION('Axis2P3D XDirection',(-0.984267060081,0.176687165465,-1.4356270274E-014)) ;
#37=DIRECTION('Vector Direction',(-0.707106781187,-3.14018491737E-015,-0.707106781187)) ;
#46=DIRECTION('Axis2P3D Direction',(-1.30032432585E-015,-5.41230644387E-016,1.)) ;
#53=DIRECTION('Vector Direction',(0.707106781187,-2.82616642563E-015,-0.707106781187)) ;
#60=DIRECTION('Axis2P3D Direction',(-1.30032432585E-015,-5.41230644387E-016,1.)) ;
#72=DIRECTION('Axis2P3D Direction',(1.95399252334E-014,-1.06581410364E-014,-1.)) ;
#73=DIRECTION('Axis2P3D XDirection',(1.,2.09262076574E-016,1.94929174363E-014)) ;
#77=DIRECTION('Axis2P3D Direction',(-2.2303447257E-030,1.06581410364E-014,1.)) ;
#82=DIRECTION('Axis2P3D Direction',(-2.2303447257E-030,1.06581410364E-014,1.)) ;
#94=DIRECTION('Axis2P3D Direction',(0.,0.,1.)) ;
#95=DIRECTION('Axis2P3D XDirection',(1.,0.,0.)) ;
#103=DIRECTION('Axis2P3D Direction',(0.,0.,1.)) ;
#112=DIRECTION('Axis2P3D Direction',(0.,0.,1.)) ;
#130=DIRECTION('Axis2P3D Direction',(-1.20792265079E-013,-8.17124146124E-014,1.)) ;
#131=DIRECTION('Axis2P3D XDirection',(1.,4.65145163764E-015,1.20777062764E-013)) ;
#135=DIRECTION('Vector Direction',(0.707106781187,-5.44903294842E-014,0.707106781186)) ;
#142=DIRECTION('Vector Direction',(-0.707106781187,3.6027533988E-008,0.707106781186)) ;
#149=DIRECTION('Axis2P3D Direction',(3.80081344766E-028,-8.17124146124E-014,1.)) ;
#161=DIRECTION('Axis2P3D Direction',(-1.7763568394E-015,-4.60964599824E-013,1.)) ;
#162=DIRECTION('Axis2P3D XDirection',(-0.975184288019,0.221394680157,1.00362183017E-013)) ;
#166=DIRECTION('Axis2P3D Direction',(-9.96096091264E-014,-4.38753657888E-013,1.)) ;
#178=DIRECTION('Axis2P3D Direction',(0.,0.,1.)) ;
#179=DIRECTION('Axis2P3D XDirection',(1.,0.,0.)) ;
#183=DIRECTION('Vector Direction',(0.,0.,1.)) ;
#190=DIRECTION('Vector Direction',(0.,0.,1.)) ;
#197=DIRECTION('Axis2P3D Direction',(0.,0.,1.)) ;
#210=DIRECTION('Axis2P3D Direction',(0.,0.,1.)) ;
#223=DIRECTION('Axis2P3D Direction',(7.1054273576E-015,-8.881784197E-015,1.)) ;
#224=DIRECTION('Axis2P3D XDirection',(-0.984267060081,0.176687165465,8.56107860378E-015)) ;
#228=DIRECTION('Vector Direction',(-0.707106781187,7.98424748528E-008,0.707106781187)) ;
#235=DIRECTION('Axis2P3D Direction',(-1.32278786462E-015,-7.36882341843E-015,1.)) ;
#242=DIRECTION('Vector Direction',(0.707106781187,-7.85046229342E-015,0.707106781187)) ;
#254=DIRECTION('Axis2P3D Direction',(1.59872115546E-014,-2.13162820728E-014,1.)) ;
#255=DIRECTION('Axis2P3D XDirection',(1.,2.09262076574E-016,-1.59367770932E-014)) ;
#259=DIRECTION('Axis2P3D Direction',(4.46068945139E-030,-2.13162820728E-014,1.)) ;
#271=DIRECTION('Axis2P3D Direction',(0.,0.,1.)) ;
#272=DIRECTION('Axis2P3D XDirection',(1.,0.,0.)) ;
#276=DIRECTION('Axis2P3D Direction',(0.,0.,1.)) ;
#285=DIRECTION('Vector Direction',(0.,0.,1.)) ;
#290=DIRECTION('Vector Direction',(0.,0.,1.)) ;
#302=DIRECTION('Axis2P3D Direction',(0.,0.,1.)) ;
#314=DIRECTION('Axis2P3D Direction',(0.,0.,1.)) ;
#315=DIRECTION('Axis2P3D XDirection',(1.,0.,0.)) ;
#323=DIRECTION('Axis2P3D Direction',(0.,0.,1.)) ;
#332=DIRECTION('Axis2P3D Direction',(0.,0.,1.)) ;
#343=DIRECTION('Axis2P3D Direction',(-8.52651282912E-014,-5.3290705182E-015,-1.)) ;
#344=DIRECTION('Axis2P3D XDirection',(1.,5.74253288595E-017,-8.52156593329E-014)) ;
#348=DIRECTION('Vector Direction',(0.707106781187,-3.99799152894E-015,-0.707106781186)) ;
#353=DIRECTION('Vector Direction',(-0.707106781187,-3.72223213467E-015,-0.707106781186)) ;
#365=DIRECTION('Axis2P3D Direction',(-4.79616346638E-014,-2.34479102801E-013,-1.)) ;
#366=DIRECTION('Axis2P3D XDirection',(-0.90149476114,0.432790013329,-5.82153345057E-014)) ;
#8=PRODUCT_RELATED_PRODUCT_CATEGORY('part',$,(#5)) ;
#7=PRODUCT_CATEGORY('part','specification') ;
#29=STYLED_ITEM(' ',(#28),#21) ;
#28=PRESENTATION_STYLE_ASSIGNMENT((#27)) ;
#127=PRESENTATION_STYLE_ASSIGNMENT((#126)) ;
#27=SURFACE_STYLE_USAGE(.BOTH.,#26) ;
#126=SURFACE_STYLE_USAGE(.BOTH.,#125) ;
#26=SURFACE_SIDE_STYLE(' ',(#25)) ;
#125=SURFACE_SIDE_STYLE(' ',(#124)) ;
#25=SURFACE_STYLE_FILL_AREA(#24) ;
#124=SURFACE_STYLE_FILL_AREA(#123) ;
#24=FILL_AREA_STYLE(' ',(#23)) ;
#123=FILL_AREA_STYLE(' ',(#122)) ;
#23=FILL_AREA_STYLE_COLOUR(' ',#22) ;
#122=FILL_AREA_STYLE_COLOUR(' ',#121) ;
#38=VECTOR('Line Direction',#37,1.) ;
#54=VECTOR('Line Direction',#53,1.) ;
#136=VECTOR('Line Direction',#135,1.) ;
#143=VECTOR('Line Direction',#142,1.) ;
#184=VECTOR('Line Direction',#183,1.) ;
#191=VECTOR('Line Direction',#190,1.) ;
#229=VECTOR('Line Direction',#228,1.) ;
#243=VECTOR('Line Direction',#242,1.) ;
#286=VECTOR('Line Direction',#285,1.) ;
#291=VECTOR('Line Direction',#290,1.) ;
#349=VECTOR('Line Direction',#348,1.) ;
#354=VECTOR('Line Direction',#353,1.) ;
#15=UNCERTAINTY_MEASURE_WITH_UNIT(LENGTH_MEASURE(0.005),#12,'distance_accuracy_value','CONFUSED CURVE UNCERTAINTY') ;
#377=SHAPE_REPRESENTATION_RELATIONSHIP(' ',' ',#19,#376) ;
#65=ORIENTED_EDGE('',*,*,#44,.T.) ;
#66=ORIENTED_EDGE('',*,*,#51,.T.) ;
#67=ORIENTED_EDGE('',*,*,#58,.F.) ;
#68=ORIENTED_EDGE('',*,*,#63,.F.) ;
#87=ORIENTED_EDGE('',*,*,#58,.T.) ;
#88=ORIENTED_EDGE('',*,*,#80,.T.) ;
#89=ORIENTED_EDGE('',*,*,#44,.F.) ;
#90=ORIENTED_EDGE('',*,*,#85,.F.) ;
#99=ORIENTED_EDGE('',*,*,#63,.T.) ;
#100=ORIENTED_EDGE('',*,*,#85,.T.) ;
#117=ORIENTED_EDGE('',*,*,#110,.F.) ;
#118=ORIENTED_EDGE('',*,*,#115,.F.) ;
#154=ORIENTED_EDGE('',*,*,#140,.T.) ;
#155=ORIENTED_EDGE('',*,*,#115,.T.) ;
#156=ORIENTED_EDGE('',*,*,#147,.F.) ;
#157=ORIENTED_EDGE('',*,*,#152,.F.) ;
#171=ORIENTED_EDGE('',*,*,#147,.T.) ;
#172=ORIENTED_EDGE('',*,*,#110,.T.) ;
#173=ORIENTED_EDGE('',*,*,#140,.F.) ;
#174=ORIENTED_EDGE('',*,*,#169,.F.) ;
#202=ORIENTED_EDGE('',*,*,#188,.T.) ;
#203=ORIENTED_EDGE('',*,*,#80,.F.) ;
#204=ORIENTED_EDGE('',*,*,#195,.F.) ;
#205=ORIENTED_EDGE('',*,*,#200,.T.) ;
#215=ORIENTED_EDGE('',*,*,#195,.T.) ;
#216=ORIENTED_EDGE('',*,*,#51,.F.) ;
#217=ORIENTED_EDGE('',*,*,#188,.F.) ;
#218=ORIENTED_EDGE('',*,*,#213,.T.) ;
#247=ORIENTED_EDGE('',*,*,#233,.T.) ;
#248=ORIENTED_EDGE('',*,*,#240,.T.) ;
#249=ORIENTED_EDGE('',*,*,#245,.F.) ;
#250=ORIENTED_EDGE('',*,*,#213,.F.) ;
#264=ORIENTED_EDGE('',*,*,#245,.T.) ;
#265=ORIENTED_EDGE('',*,*,#262,.T.) ;
#266=ORIENTED_EDGE('',*,*,#233,.F.) ;
#267=ORIENTED_EDGE('',*,*,#200,.F.) ;
#295=ORIENTED_EDGE('',*,*,#283,.F.) ;
#296=ORIENTED_EDGE('',*,*,#288,.T.) ;
#297=ORIENTED_EDGE('',*,*,#169,.T.) ;
#298=ORIENTED_EDGE('',*,*,#293,.F.) ;
#307=ORIENTED_EDGE('',*,*,#305,.F.) ;
#308=ORIENTED_EDGE('',*,*,#293,.T.) ;
#309=ORIENTED_EDGE('',*,*,#152,.T.) ;
#310=ORIENTED_EDGE('',*,*,#288,.F.) ;
#319=ORIENTED_EDGE('',*,*,#262,.F.) ;
#320=ORIENTED_EDGE('',*,*,#240,.F.) ;
#337=ORIENTED_EDGE('',*,*,#330,.T.) ;
#338=ORIENTED_EDGE('',*,*,#335,.T.) ;
#358=ORIENTED_EDGE('',*,*,#351,.T.) ;
#359=ORIENTED_EDGE('',*,*,#305,.T.) ;
#360=ORIENTED_EDGE('',*,*,#356,.F.) ;
#361=ORIENTED_EDGE('',*,*,#330,.F.) ;
#370=ORIENTED_EDGE('',*,*,#356,.T.) ;
#371=ORIENTED_EDGE('',*,*,#283,.T.) ;
#372=ORIENTED_EDGE('',*,*,#351,.F.) ;
#373=ORIENTED_EDGE('',*,*,#335,.F.) ;
#119=FACE_BOUND('',#116,.T.) ;
#339=FACE_BOUND('',#336,.T.) ;
#30=CLOSED_SHELL('Closed Shell',(#70,#92,#120,#159,#176,#207,#220,#252,#269,#300,#312,#340,#363,#375)) ;
#376=ADVANCED_BREP_SHAPE_REPRESENTATION('NONE',(#21),#16) ;
#70=ADVANCED_FACE('PartBody',(#69),#35,.T.) ;
#92=ADVANCED_FACE('PartBody',(#91),#75,.T.) ;
#120=ADVANCED_FACE('PartBody',(#101,#119),#97,.T.) ;
#159=ADVANCED_FACE('PartBody',(#158),#133,.F.) ;
#176=ADVANCED_FACE('PartBody',(#175),#164,.F.) ;
#207=ADVANCED_FACE('PartBody',(#206),#181,.T.) ;
#220=ADVANCED_FACE('PartBody',(#219),#181,.T.) ;
#252=ADVANCED_FACE('PartBody',(#251),#226,.T.) ;
#269=ADVANCED_FACE('PartBody',(#268),#257,.T.) ;
#300=ADVANCED_FACE('PartBody',(#299),#274,.F.) ;
#312=ADVANCED_FACE('PartBody',(#311),#274,.F.) ;
#340=ADVANCED_FACE('PartBody',(#321,#339),#317,.F.) ;
#363=ADVANCED_FACE('PartBody',(#362),#346,.F.) ;
#375=ADVANCED_FACE('PartBody',(#374),#368,.F.) ;
#4=APPLICATION_PROTOCOL_DEFINITION('international standard','automotive_design',2001,#1) ;
#21=MANIFOLD_SOLID_BREP('PartBody',#30) ;
#48=CIRCLE('generated circle',#47,6.) ;
#62=CIRCLE('generated circle',#61,5.75) ;
#79=CIRCLE('generated circle',#78,6.) ;
#84=CIRCLE('generated circle',#83,5.75) ;
#105=CIRCLE('generated circle',#104,4.35) ;
#114=CIRCLE('generated circle',#113,4.35) ;
#151=CIRCLE('generated circle',#150,4.1) ;
#168=CIRCLE('generated circle',#167,4.1) ;
#199=CIRCLE('generated circle',#198,6.) ;
#212=CIRCLE('generated circle',#211,6.) ;
#237=CIRCLE('generated circle',#236,5.75) ;
#261=CIRCLE('generated circle',#260,5.75) ;
#278=CIRCLE('generated circle',#277,4.1) ;
#304=CIRCLE('generated circle',#303,4.1) ;
#325=CIRCLE('generated circle',#324,4.35) ;
#334=CIRCLE('generated circle',#333,4.35) ;
#22=COLOUR_RGB('Colour',0.823529411765,0.823529411765,1.) ;
#121=COLOUR_RGB('Colour',0.,0.501960784314,1.) ;
#35=CONICAL_SURFACE('Cone',#34,0.,0.785398163397) ;
#75=CONICAL_SURFACE('Cone',#74,0.,0.785398163397) ;
#133=CONICAL_SURFACE('Cone',#132,0.,0.785398163398) ;
#164=CONICAL_SURFACE('Cone',#163,0.,0.785398163398) ;
#226=CONICAL_SURFACE('Cone',#225,0.,0.785398163397) ;
#257=CONICAL_SURFACE('Cone',#256,0.,0.785398163397) ;
#346=CONICAL_SURFACE('Cone',#345,0.,0.785398163398) ;
#368=CONICAL_SURFACE('Cone',#367,0.,0.785398163398) ;
#128=OVER_RIDING_STYLED_ITEM(' ',(#127),#120,#29) ;
#208=OVER_RIDING_STYLED_ITEM(' ',(#127),#207,#29) ;
#221=OVER_RIDING_STYLED_ITEM(' ',(#127),#220,#29) ;
#341=OVER_RIDING_STYLED_ITEM(' ',(#127),#340,#29) ;
#181=CYLINDRICAL_SURFACE('generated cylinder',#180,6.) ;
#274=CYLINDRICAL_SURFACE('generated cylinder',#273,4.1) ;
#44=EDGE_CURVE('',#41,#43,#39,.T.) ;
#51=EDGE_CURVE('',#43,#50,#48,.T.) ;
#58=EDGE_CURVE('',#57,#50,#55,.T.) ;
#63=EDGE_CURVE('',#41,#57,#62,.T.) ;
#80=EDGE_CURVE('',#50,#43,#79,.T.) ;
#85=EDGE_CURVE('',#57,#41,#84,.T.) ;
#110=EDGE_CURVE('',#107,#109,#105,.T.) ;
#115=EDGE_CURVE('',#109,#107,#114,.T.) ;
#140=EDGE_CURVE('',#139,#109,#137,.T.) ;
#147=EDGE_CURVE('',#146,#107,#144,.T.) ;
#152=EDGE_CURVE('',#139,#146,#151,.T.) ;
#169=EDGE_CURVE('',#146,#139,#168,.T.) ;
#188=EDGE_CURVE('',#187,#43,#185,.T.) ;
#195=EDGE_CURVE('',#194,#50,#192,.T.) ;
#200=EDGE_CURVE('',#194,#187,#199,.T.) ;
#213=EDGE_CURVE('',#187,#194,#212,.T.) ;
#233=EDGE_CURVE('',#187,#232,#230,.F.) ;
#240=EDGE_CURVE('',#232,#239,#237,.T.) ;
#245=EDGE_CURVE('',#194,#239,#244,.F.) ;
#262=EDGE_CURVE('',#239,#232,#261,.T.) ;
#283=EDGE_CURVE('',#280,#282,#278,.T.) ;
#288=EDGE_CURVE('',#280,#146,#287,.T.) ;
#293=EDGE_CURVE('',#282,#139,#292,.T.) ;
#305=EDGE_CURVE('',#282,#280,#304,.T.) ;
#330=EDGE_CURVE('',#327,#329,#325,.T.) ;
#335=EDGE_CURVE('',#329,#327,#334,.T.) ;
#351=EDGE_CURVE('',#327,#282,#350,.F.) ;
#356=EDGE_CURVE('',#329,#280,#355,.F.) ;
#64=EDGE_LOOP('',(#65,#66,#67,#68)) ;
#86=EDGE_LOOP('',(#87,#88,#89,#90)) ;
#98=EDGE_LOOP('',(#99,#100)) ;
#116=EDGE_LOOP('',(#117,#118)) ;
#153=EDGE_LOOP('',(#154,#155,#156,#157)) ;
#170=EDGE_LOOP('',(#171,#172,#173,#174)) ;
#201=EDGE_LOOP('',(#202,#203,#204,#205)) ;
#214=EDGE_LOOP('',(#215,#216,#217,#218)) ;
#246=EDGE_LOOP('',(#247,#248,#249,#250)) ;
#263=EDGE_LOOP('',(#264,#265,#266,#267)) ;
#294=EDGE_LOOP('',(#295,#296,#297,#298)) ;
#306=EDGE_LOOP('',(#307,#308,#309,#310)) ;
#318=EDGE_LOOP('',(#319,#320)) ;
#336=EDGE_LOOP('',(#337,#338)) ;
#357=EDGE_LOOP('',(#358,#359,#360,#361)) ;
#369=EDGE_LOOP('',(#370,#371,#372,#373)) ;
#69=FACE_OUTER_BOUND('',#64,.T.) ;
#91=FACE_OUTER_BOUND('',#86,.T.) ;
#101=FACE_OUTER_BOUND('',#98,.T.) ;
#158=FACE_OUTER_BOUND('',#153,.T.) ;
#175=FACE_OUTER_BOUND('',#170,.T.) ;
#206=FACE_OUTER_BOUND('',#201,.T.) ;
#219=FACE_OUTER_BOUND('',#214,.T.) ;
#251=FACE_OUTER_BOUND('',#246,.T.) ;
#268=FACE_OUTER_BOUND('',#263,.T.) ;
#299=FACE_OUTER_BOUND('',#294,.T.) ;
#311=FACE_OUTER_BOUND('',#306,.T.) ;
#321=FACE_OUTER_BOUND('',#318,.T.) ;
#362=FACE_OUTER_BOUND('',#357,.T.) ;
#374=FACE_OUTER_BOUND('',#369,.T.) ;
#39=LINE('Line',#36,#38) ;
#55=LINE('Line',#52,#54) ;
#137=LINE('Line',#134,#136) ;
#144=LINE('Line',#141,#143) ;
#185=LINE('Line',#182,#184) ;
#192=LINE('Line',#189,#191) ;
#230=LINE('Line',#227,#229) ;
#244=LINE('Line',#241,#243) ;
#287=LINE('Line',#284,#286) ;
#292=LINE('Line',#289,#291) ;
#350=LINE('Line',#347,#349) ;
#355=LINE('Line',#352,#354) ;
#97=PLANE('',#96) ;
#317=PLANE('',#316) ;
#9=PRODUCT_CATEGORY_RELATIONSHIP(' ',' ',#7,#8) ;
#6=PRODUCT_DEFINITION_FORMATION_WITH_SPECIFIED_SOURCE('',' ',#5,.NOT_KNOWN.) ;
#20=SHAPE_DEFINITION_REPRESENTATION(#11,#19) ;
#41=VERTEX_POINT('',#40) ;
#43=VERTEX_POINT('',#42) ;
#50=VERTEX_POINT('',#49) ;
#57=VERTEX_POINT('',#56) ;
#107=VERTEX_POINT('',#106) ;
#109=VERTEX_POINT('',#108) ;
#139=VERTEX_POINT('',#138) ;
#146=VERTEX_POINT('',#145) ;
#187=VERTEX_POINT('',#186) ;
#194=VERTEX_POINT('',#193) ;
#232=VERTEX_POINT('',#231) ;
#239=VERTEX_POINT('',#238) ;
#280=VERTEX_POINT('',#279) ;
#282=VERTEX_POINT('',#281) ;
#327=VERTEX_POINT('',#326) ;
#329=VERTEX_POINT('',#328) ;
#12=(LENGTH_UNIT()NAMED_UNIT(*)SI_UNIT(.MILLI.,.METRE.)) ;
#13=(NAMED_UNIT(*)PLANE_ANGLE_UNIT()SI_UNIT($,.RADIAN.)) ;
#14=(NAMED_UNIT(*)SI_UNIT($,.STERADIAN.)SOLID_ANGLE_UNIT()) ;
#16=(GEOMETRIC_REPRESENTATION_CONTEXT(3)GLOBAL_UNCERTAINTY_ASSIGNED_CONTEXT((#15))GLOBAL_UNIT_ASSIGNED_CONTEXT((#12,#13,#14))REPRESENTATION_CONTEXT(' ',' ')) ;
ENDSEC;
END-ISO-10303-21;
