ISO-10303-21;
HEADER;
FILE_DESCRIPTION(('CATIA V5 STEP Exchange','CAx-IF Rec.Pracs.--- Model Styling and Organization---1.4--- 2014-01-23'),'2;1');

FILE_NAME('G:\\Konstruktion\\VB4-Greifer\\CAD-CATIA_V5_FERTIGUNGSDATEN\\02_Datenblatterstellung_extern\\01_TOS-Datenblaetter_20210315\\02_3D-data\\TOS_109_460039_00.stp','2021-06-08T10:44:14+00:00',('none'),('none'),'CATIA Version 5-6 Release 2018 SP3 HF13','CATIA V5 STEP AP214','none');

FILE_SCHEMA(('AUTOMOTIVE_DESIGN { 1 0 10303 214 1 1 1 1 }'));

ENDSEC;
DATA;
#5=PRODUCT('TOS_109_460039','TOS_109_460039','Tuenkers',(#2)) ;
#2=PRODUCT_CONTEXT(' ',#1,'mechanical') ;
#1=APPLICATION_CONTEXT('automotive design') ;
#10=PRODUCT_DEFINITION('',' ',#6,#3) ;
#3=PRODUCT_DEFINITION_CONTEXT('part definition',#1,' ') ;
#11=PRODUCT_DEFINITION_SHAPE(' ',' ',#10) ;
#396=MECHANICAL_DESIGN_GEOMETRIC_PRESENTATION_REPRESENTATION(' ',(#202,#220,#261,#279,#327,#345,#29),#16) ;
#19=SHAPE_REPRESENTATION(' ',(#18),#16) ;
#18=AXIS2_PLACEMENT_3D(' ',#17,$,$) ;
#34=AXIS2_PLACEMENT_3D('Plane Axis2P3D',#31,#32,#33) ;
#74=AXIS2_PLACEMENT_3D('Plane Axis2P3D',#71,#72,#73) ;
#105=AXIS2_PLACEMENT_3D('Plane Axis2P3D',#102,#103,#104) ;
#136=AXIS2_PLACEMENT_3D('Plane Axis2P3D',#133,#134,#135) ;
#158=AXIS2_PLACEMENT_3D('Cylinder Axis2P3D',#155,#156,#157) ;
#162=AXIS2_PLACEMENT_3D('Circle Axis2P3D',#160,#161,$) ;
#178=AXIS2_PLACEMENT_3D('Circle Axis2P3D',#176,#177,$) ;
#205=AXIS2_PLACEMENT_3D('Circle Axis2P3D',#203,#204,$) ;
#210=AXIS2_PLACEMENT_3D('Circle Axis2P3D',#208,#209,$) ;
#224=AXIS2_PLACEMENT_3D('Cylinder Axis2P3D',#221,#222,#223) ;
#228=AXIS2_PLACEMENT_3D('Circle Axis2P3D',#226,#227,$) ;
#244=AXIS2_PLACEMENT_3D('Circle Axis2P3D',#242,#243,$) ;
#264=AXIS2_PLACEMENT_3D('Circle Axis2P3D',#262,#263,$) ;
#269=AXIS2_PLACEMENT_3D('Circle Axis2P3D',#267,#268,$) ;
#283=AXIS2_PLACEMENT_3D('Cylinder Axis2P3D',#280,#281,#282) ;
#287=AXIS2_PLACEMENT_3D('Circle Axis2P3D',#285,#286,$) ;
#303=AXIS2_PLACEMENT_3D('Circle Axis2P3D',#301,#302,$) ;
#330=AXIS2_PLACEMENT_3D('Circle Axis2P3D',#328,#329,$) ;
#335=AXIS2_PLACEMENT_3D('Circle Axis2P3D',#333,#334,$) ;
#349=AXIS2_PLACEMENT_3D('Plane Axis2P3D',#346,#347,#348) ;
#373=AXIS2_PLACEMENT_3D('Plane Axis2P3D',#370,#371,#372) ;
#17=CARTESIAN_POINT(' ',(0.,0.,0.)) ;
#31=CARTESIAN_POINT('Axis2P3D Location',(-10.,10.,0.)) ;
#36=CARTESIAN_POINT('Line Origine',(10.,10.,2.)) ;
#40=CARTESIAN_POINT('Vertex',(10.,10.,0.)) ;
#42=CARTESIAN_POINT('Vertex',(10.,10.,4.)) ;
#45=CARTESIAN_POINT('Line Origine',(-3.5527136788E-015,10.,0.)) ;
#49=CARTESIAN_POINT('Vertex',(-10.,10.,0.)) ;
#52=CARTESIAN_POINT('Line Origine',(-10.,10.,2.)) ;
#56=CARTESIAN_POINT('Vertex',(-10.,10.,4.)) ;
#59=CARTESIAN_POINT('Line Origine',(-3.5527136788E-015,10.,4.)) ;
#71=CARTESIAN_POINT('Axis2P3D Location',(-10.,-40.,0.)) ;
#76=CARTESIAN_POINT('Line Origine',(-10.,-15.,0.)) ;
#80=CARTESIAN_POINT('Vertex',(-10.,-40.,0.)) ;
#83=CARTESIAN_POINT('Line Origine',(-10.,-40.,2.)) ;
#87=CARTESIAN_POINT('Vertex',(-10.,-40.,4.)) ;
#90=CARTESIAN_POINT('Line Origine',(-10.,-15.,4.)) ;
#102=CARTESIAN_POINT('Axis2P3D Location',(10.,-40.,0.)) ;
#107=CARTESIAN_POINT('Line Origine',(-3.5527136788E-015,-40.,0.)) ;
#111=CARTESIAN_POINT('Vertex',(10.,-40.,0.)) ;
#114=CARTESIAN_POINT('Line Origine',(10.,-40.,2.)) ;
#118=CARTESIAN_POINT('Vertex',(10.,-40.,4.)) ;
#121=CARTESIAN_POINT('Line Origine',(-3.5527136788E-015,-40.,4.)) ;
#133=CARTESIAN_POINT('Axis2P3D Location',(10.,10.,0.)) ;
#138=CARTESIAN_POINT('Line Origine',(10.,-15.,0.)) ;
#143=CARTESIAN_POINT('Line Origine',(10.,-15.,4.)) ;
#155=CARTESIAN_POINT('Axis2P3D Location',(0.,0.,2.)) ;
#160=CARTESIAN_POINT('Axis2P3D Location',(0.,0.,4.)) ;
#164=CARTESIAN_POINT('Vertex',(-6.,7.34788079488E-016,4.)) ;
#166=CARTESIAN_POINT('Vertex',(6.,0.,4.)) ;
#169=CARTESIAN_POINT('Line Origine',(6.,-1.46957615898E-015,2.)) ;
#173=CARTESIAN_POINT('Vertex',(6.,0.,0.)) ;
#176=CARTESIAN_POINT('Axis2P3D Location',(0.,0.,0.)) ;
#180=CARTESIAN_POINT('Vertex',(-6.,7.34788079488E-016,0.)) ;
#183=CARTESIAN_POINT('Line Origine',(-6.,7.34788079488E-016,2.)) ;
#203=CARTESIAN_POINT('Axis2P3D Location',(0.,0.,4.)) ;
#208=CARTESIAN_POINT('Axis2P3D Location',(0.,0.,0.)) ;
#221=CARTESIAN_POINT('Axis2P3D Location',(0.,-30.,2.)) ;
#226=CARTESIAN_POINT('Axis2P3D Location',(0.,-30.,4.)) ;
#230=CARTESIAN_POINT('Vertex',(-6.1,-30.,4.)) ;
#232=CARTESIAN_POINT('Vertex',(6.1,-30.,4.)) ;
#235=CARTESIAN_POINT('Line Origine',(6.1,-30.,2.)) ;
#239=CARTESIAN_POINT('Vertex',(6.1,-30.,0.)) ;
#242=CARTESIAN_POINT('Axis2P3D Location',(0.,-30.,0.)) ;
#246=CARTESIAN_POINT('Vertex',(-6.1,-30.,0.)) ;
#249=CARTESIAN_POINT('Line Origine',(-6.1,-30.,2.)) ;
#262=CARTESIAN_POINT('Axis2P3D Location',(0.,-30.,4.)) ;
#267=CARTESIAN_POINT('Axis2P3D Location',(0.,-30.,0.)) ;
#280=CARTESIAN_POINT('Axis2P3D Location',(-1.89982593942E-015,-15.,2.)) ;
#285=CARTESIAN_POINT('Axis2P3D Location',(-1.89982593942E-015,-15.,4.)) ;
#289=CARTESIAN_POINT('Vertex',(-3.,-15.,4.)) ;
#291=CARTESIAN_POINT('Vertex',(3.,-15.,4.)) ;
#294=CARTESIAN_POINT('Line Origine',(3.,-15.,2.)) ;
#298=CARTESIAN_POINT('Vertex',(3.,-15.,0.)) ;
#301=CARTESIAN_POINT('Axis2P3D Location',(-1.89982593942E-015,-15.,0.)) ;
#305=CARTESIAN_POINT('Vertex',(-3.,-15.,0.)) ;
#308=CARTESIAN_POINT('Line Origine',(-3.,-15.,2.)) ;
#328=CARTESIAN_POINT('Axis2P3D Location',(-1.89982593942E-015,-15.,4.)) ;
#333=CARTESIAN_POINT('Axis2P3D Location',(-1.89982593942E-015,-15.,0.)) ;
#346=CARTESIAN_POINT('Axis2P3D Location',(0.,0.,0.)) ;
#370=CARTESIAN_POINT('Axis2P3D Location',(0.,0.,4.)) ;
#32=DIRECTION('Axis2P3D Direction',(0.,-1.,0.)) ;
#33=DIRECTION('Axis2P3D XDirection',(1.,0.,0.)) ;
#37=DIRECTION('Vector Direction',(0.,0.,1.)) ;
#46=DIRECTION('Vector Direction',(1.,0.,0.)) ;
#53=DIRECTION('Vector Direction',(0.,0.,1.)) ;
#60=DIRECTION('Vector Direction',(1.,0.,0.)) ;
#72=DIRECTION('Axis2P3D Direction',(1.,0.,0.)) ;
#73=DIRECTION('Axis2P3D XDirection',(0.,1.,0.)) ;
#77=DIRECTION('Vector Direction',(0.,1.,0.)) ;
#84=DIRECTION('Vector Direction',(0.,0.,1.)) ;
#91=DIRECTION('Vector Direction',(0.,1.,0.)) ;
#103=DIRECTION('Axis2P3D Direction',(0.,1.,-0.)) ;
#104=DIRECTION('Axis2P3D XDirection',(-1.,0.,0.)) ;
#108=DIRECTION('Vector Direction',(-1.,0.,0.)) ;
#115=DIRECTION('Vector Direction',(0.,0.,1.)) ;
#122=DIRECTION('Vector Direction',(-1.,0.,0.)) ;
#134=DIRECTION('Axis2P3D Direction',(-1.,0.,0.)) ;
#135=DIRECTION('Axis2P3D XDirection',(0.,-1.,0.)) ;
#139=DIRECTION('Vector Direction',(0.,-1.,0.)) ;
#144=DIRECTION('Vector Direction',(0.,-1.,0.)) ;
#156=DIRECTION('Axis2P3D Direction',(0.,0.,1.)) ;
#157=DIRECTION('Axis2P3D XDirection',(1.,0.,0.)) ;
#161=DIRECTION('Axis2P3D Direction',(0.,0.,1.)) ;
#170=DIRECTION('Vector Direction',(0.,0.,1.)) ;
#177=DIRECTION('Axis2P3D Direction',(0.,0.,1.)) ;
#184=DIRECTION('Vector Direction',(0.,0.,1.)) ;
#204=DIRECTION('Axis2P3D Direction',(0.,0.,1.)) ;
#209=DIRECTION('Axis2P3D Direction',(0.,0.,1.)) ;
#222=DIRECTION('Axis2P3D Direction',(0.,0.,1.)) ;
#223=DIRECTION('Axis2P3D XDirection',(1.,0.,0.)) ;
#227=DIRECTION('Axis2P3D Direction',(0.,0.,1.)) ;
#236=DIRECTION('Vector Direction',(0.,0.,1.)) ;
#243=DIRECTION('Axis2P3D Direction',(0.,0.,1.)) ;
#250=DIRECTION('Vector Direction',(0.,0.,1.)) ;
#263=DIRECTION('Axis2P3D Direction',(0.,0.,1.)) ;
#268=DIRECTION('Axis2P3D Direction',(0.,0.,1.)) ;
#281=DIRECTION('Axis2P3D Direction',(0.,0.,1.)) ;
#282=DIRECTION('Axis2P3D XDirection',(1.,0.,0.)) ;
#286=DIRECTION('Axis2P3D Direction',(0.,0.,1.)) ;
#295=DIRECTION('Vector Direction',(0.,0.,1.)) ;
#302=DIRECTION('Axis2P3D Direction',(0.,0.,1.)) ;
#309=DIRECTION('Vector Direction',(0.,0.,1.)) ;
#329=DIRECTION('Axis2P3D Direction',(0.,0.,1.)) ;
#334=DIRECTION('Axis2P3D Direction',(0.,0.,1.)) ;
#347=DIRECTION('Axis2P3D Direction',(0.,0.,1.)) ;
#348=DIRECTION('Axis2P3D XDirection',(1.,0.,0.)) ;
#371=DIRECTION('Axis2P3D Direction',(0.,0.,1.)) ;
#372=DIRECTION('Axis2P3D XDirection',(1.,0.,0.)) ;
#8=PRODUCT_RELATED_PRODUCT_CATEGORY('part',$,(#5)) ;
#7=PRODUCT_CATEGORY('part','specification') ;
#29=STYLED_ITEM(' ',(#28),#21) ;
#28=PRESENTATION_STYLE_ASSIGNMENT((#27)) ;
#201=PRESENTATION_STYLE_ASSIGNMENT((#200)) ;
#326=PRESENTATION_STYLE_ASSIGNMENT((#325)) ;
#27=SURFACE_STYLE_USAGE(.BOTH.,#26) ;
#200=SURFACE_STYLE_USAGE(.BOTH.,#199) ;
#325=SURFACE_STYLE_USAGE(.BOTH.,#324) ;
#26=SURFACE_SIDE_STYLE(' ',(#25)) ;
#199=SURFACE_SIDE_STYLE(' ',(#198)) ;
#324=SURFACE_SIDE_STYLE(' ',(#323)) ;
#25=SURFACE_STYLE_FILL_AREA(#24) ;
#198=SURFACE_STYLE_FILL_AREA(#197) ;
#323=SURFACE_STYLE_FILL_AREA(#322) ;
#24=FILL_AREA_STYLE(' ',(#23)) ;
#197=FILL_AREA_STYLE(' ',(#196)) ;
#322=FILL_AREA_STYLE(' ',(#321)) ;
#23=FILL_AREA_STYLE_COLOUR(' ',#22) ;
#196=FILL_AREA_STYLE_COLOUR(' ',#195) ;
#321=FILL_AREA_STYLE_COLOUR(' ',#320) ;
#38=VECTOR('Line Direction',#37,1.) ;
#47=VECTOR('Line Direction',#46,1.) ;
#54=VECTOR('Line Direction',#53,1.) ;
#61=VECTOR('Line Direction',#60,1.) ;
#78=VECTOR('Line Direction',#77,1.) ;
#85=VECTOR('Line Direction',#84,1.) ;
#92=VECTOR('Line Direction',#91,1.) ;
#109=VECTOR('Line Direction',#108,1.) ;
#116=VECTOR('Line Direction',#115,1.) ;
#123=VECTOR('Line Direction',#122,1.) ;
#140=VECTOR('Line Direction',#139,1.) ;
#145=VECTOR('Line Direction',#144,1.) ;
#171=VECTOR('Line Direction',#170,1.) ;
#185=VECTOR('Line Direction',#184,1.) ;
#237=VECTOR('Line Direction',#236,1.) ;
#251=VECTOR('Line Direction',#250,1.) ;
#296=VECTOR('Line Direction',#295,1.) ;
#310=VECTOR('Line Direction',#309,1.) ;
#15=UNCERTAINTY_MEASURE_WITH_UNIT(LENGTH_MEASURE(0.005),#12,'distance_accuracy_value','CONFUSED CURVE UNCERTAINTY') ;
#395=SHAPE_REPRESENTATION_RELATIONSHIP(' ',' ',#19,#394) ;
#65=ORIENTED_EDGE('',*,*,#44,.F.) ;
#66=ORIENTED_EDGE('',*,*,#51,.T.) ;
#67=ORIENTED_EDGE('',*,*,#58,.T.) ;
#68=ORIENTED_EDGE('',*,*,#63,.F.) ;
#96=ORIENTED_EDGE('',*,*,#58,.F.) ;
#97=ORIENTED_EDGE('',*,*,#82,.T.) ;
#98=ORIENTED_EDGE('',*,*,#89,.T.) ;
#99=ORIENTED_EDGE('',*,*,#94,.F.) ;
#127=ORIENTED_EDGE('',*,*,#89,.F.) ;
#128=ORIENTED_EDGE('',*,*,#113,.T.) ;
#129=ORIENTED_EDGE('',*,*,#120,.T.) ;
#130=ORIENTED_EDGE('',*,*,#125,.F.) ;
#149=ORIENTED_EDGE('',*,*,#120,.F.) ;
#150=ORIENTED_EDGE('',*,*,#142,.T.) ;
#151=ORIENTED_EDGE('',*,*,#44,.T.) ;
#152=ORIENTED_EDGE('',*,*,#147,.F.) ;
#189=ORIENTED_EDGE('',*,*,#168,.T.) ;
#190=ORIENTED_EDGE('',*,*,#175,.F.) ;
#191=ORIENTED_EDGE('',*,*,#182,.F.) ;
#192=ORIENTED_EDGE('',*,*,#187,.T.) ;
#214=ORIENTED_EDGE('',*,*,#207,.T.) ;
#215=ORIENTED_EDGE('',*,*,#187,.F.) ;
#216=ORIENTED_EDGE('',*,*,#212,.F.) ;
#217=ORIENTED_EDGE('',*,*,#175,.T.) ;
#255=ORIENTED_EDGE('',*,*,#234,.T.) ;
#256=ORIENTED_EDGE('',*,*,#241,.F.) ;
#257=ORIENTED_EDGE('',*,*,#248,.F.) ;
#258=ORIENTED_EDGE('',*,*,#253,.T.) ;
#273=ORIENTED_EDGE('',*,*,#266,.T.) ;
#274=ORIENTED_EDGE('',*,*,#253,.F.) ;
#275=ORIENTED_EDGE('',*,*,#271,.F.) ;
#276=ORIENTED_EDGE('',*,*,#241,.T.) ;
#314=ORIENTED_EDGE('',*,*,#293,.T.) ;
#315=ORIENTED_EDGE('',*,*,#300,.F.) ;
#316=ORIENTED_EDGE('',*,*,#307,.F.) ;
#317=ORIENTED_EDGE('',*,*,#312,.T.) ;
#339=ORIENTED_EDGE('',*,*,#332,.T.) ;
#340=ORIENTED_EDGE('',*,*,#312,.F.) ;
#341=ORIENTED_EDGE('',*,*,#337,.F.) ;
#342=ORIENTED_EDGE('',*,*,#300,.T.) ;
#352=ORIENTED_EDGE('',*,*,#142,.F.) ;
#353=ORIENTED_EDGE('',*,*,#113,.F.) ;
#354=ORIENTED_EDGE('',*,*,#82,.F.) ;
#355=ORIENTED_EDGE('',*,*,#51,.F.) ;
#358=ORIENTED_EDGE('',*,*,#212,.T.) ;
#359=ORIENTED_EDGE('',*,*,#182,.T.) ;
#362=ORIENTED_EDGE('',*,*,#271,.T.) ;
#363=ORIENTED_EDGE('',*,*,#248,.T.) ;
#366=ORIENTED_EDGE('',*,*,#337,.T.) ;
#367=ORIENTED_EDGE('',*,*,#307,.T.) ;
#376=ORIENTED_EDGE('',*,*,#63,.T.) ;
#377=ORIENTED_EDGE('',*,*,#94,.T.) ;
#378=ORIENTED_EDGE('',*,*,#125,.T.) ;
#379=ORIENTED_EDGE('',*,*,#147,.T.) ;
#382=ORIENTED_EDGE('',*,*,#168,.F.) ;
#383=ORIENTED_EDGE('',*,*,#207,.F.) ;
#386=ORIENTED_EDGE('',*,*,#234,.F.) ;
#387=ORIENTED_EDGE('',*,*,#266,.F.) ;
#390=ORIENTED_EDGE('',*,*,#293,.F.) ;
#391=ORIENTED_EDGE('',*,*,#332,.F.) ;
#360=FACE_BOUND('',#357,.T.) ;
#364=FACE_BOUND('',#361,.T.) ;
#368=FACE_BOUND('',#365,.T.) ;
#384=FACE_BOUND('',#381,.T.) ;
#388=FACE_BOUND('',#385,.T.) ;
#392=FACE_BOUND('',#389,.T.) ;
#30=CLOSED_SHELL('Closed Shell',(#70,#101,#132,#154,#194,#219,#260,#278,#319,#344,#369,#393)) ;
#394=ADVANCED_BREP_SHAPE_REPRESENTATION('NONE',(#21),#16) ;
#70=ADVANCED_FACE('PartBody',(#69),#35,.F.) ;
#101=ADVANCED_FACE('PartBody',(#100),#75,.F.) ;
#132=ADVANCED_FACE('PartBody',(#131),#106,.F.) ;
#154=ADVANCED_FACE('PartBody',(#153),#137,.F.) ;
#194=ADVANCED_FACE('PartBody',(#193),#159,.F.) ;
#219=ADVANCED_FACE('PartBody',(#218),#159,.F.) ;
#260=ADVANCED_FACE('PartBody',(#259),#225,.F.) ;
#278=ADVANCED_FACE('PartBody',(#277),#225,.F.) ;
#319=ADVANCED_FACE('PartBody',(#318),#284,.F.) ;
#344=ADVANCED_FACE('PartBody',(#343),#284,.F.) ;
#369=ADVANCED_FACE('PartBody',(#356,#360,#364,#368),#350,.F.) ;
#393=ADVANCED_FACE('PartBody',(#380,#384,#388,#392),#374,.T.) ;
#4=APPLICATION_PROTOCOL_DEFINITION('international standard','automotive_design',2001,#1) ;
#21=MANIFOLD_SOLID_BREP('PartBody',#30) ;
#163=CIRCLE('generated circle',#162,6.) ;
#179=CIRCLE('generated circle',#178,6.) ;
#206=CIRCLE('generated circle',#205,6.) ;
#211=CIRCLE('generated circle',#210,6.) ;
#229=CIRCLE('generated circle',#228,6.1) ;
#245=CIRCLE('generated circle',#244,6.1) ;
#265=CIRCLE('generated circle',#264,6.1) ;
#270=CIRCLE('generated circle',#269,6.1) ;
#288=CIRCLE('generated circle',#287,3.) ;
#304=CIRCLE('generated circle',#303,3.) ;
#331=CIRCLE('generated circle',#330,3.) ;
#336=CIRCLE('generated circle',#335,3.) ;
#22=COLOUR_RGB('Colour',0.6,0.576470588235,0.749019607843) ;
#202=OVER_RIDING_STYLED_ITEM(' ',(#201),#194,#29) ;
#220=OVER_RIDING_STYLED_ITEM(' ',(#201),#219,#29) ;
#261=OVER_RIDING_STYLED_ITEM(' ',(#201),#260,#29) ;
#279=OVER_RIDING_STYLED_ITEM(' ',(#201),#278,#29) ;
#327=OVER_RIDING_STYLED_ITEM(' ',(#326),#319,#29) ;
#345=OVER_RIDING_STYLED_ITEM(' ',(#326),#344,#29) ;
#159=CYLINDRICAL_SURFACE('generated cylinder',#158,6.) ;
#225=CYLINDRICAL_SURFACE('generated cylinder',#224,6.1) ;
#284=CYLINDRICAL_SURFACE('generated cylinder',#283,3.) ;
#195=DRAUGHTING_PRE_DEFINED_COLOUR('cyan') ;
#320=DRAUGHTING_PRE_DEFINED_COLOUR('blue') ;
#44=EDGE_CURVE('',#41,#43,#39,.T.) ;
#51=EDGE_CURVE('',#41,#50,#48,.F.) ;
#58=EDGE_CURVE('',#50,#57,#55,.T.) ;
#63=EDGE_CURVE('',#43,#57,#62,.F.) ;
#82=EDGE_CURVE('',#50,#81,#79,.F.) ;
#89=EDGE_CURVE('',#81,#88,#86,.T.) ;
#94=EDGE_CURVE('',#57,#88,#93,.F.) ;
#113=EDGE_CURVE('',#81,#112,#110,.F.) ;
#120=EDGE_CURVE('',#112,#119,#117,.T.) ;
#125=EDGE_CURVE('',#88,#119,#124,.F.) ;
#142=EDGE_CURVE('',#112,#41,#141,.F.) ;
#147=EDGE_CURVE('',#119,#43,#146,.F.) ;
#168=EDGE_CURVE('',#165,#167,#163,.T.) ;
#175=EDGE_CURVE('',#174,#167,#172,.T.) ;
#182=EDGE_CURVE('',#181,#174,#179,.T.) ;
#187=EDGE_CURVE('',#181,#165,#186,.T.) ;
#207=EDGE_CURVE('',#167,#165,#206,.T.) ;
#212=EDGE_CURVE('',#174,#181,#211,.T.) ;
#234=EDGE_CURVE('',#231,#233,#229,.T.) ;
#241=EDGE_CURVE('',#240,#233,#238,.T.) ;
#248=EDGE_CURVE('',#247,#240,#245,.T.) ;
#253=EDGE_CURVE('',#247,#231,#252,.T.) ;
#266=EDGE_CURVE('',#233,#231,#265,.T.) ;
#271=EDGE_CURVE('',#240,#247,#270,.T.) ;
#293=EDGE_CURVE('',#290,#292,#288,.T.) ;
#300=EDGE_CURVE('',#299,#292,#297,.T.) ;
#307=EDGE_CURVE('',#306,#299,#304,.T.) ;
#312=EDGE_CURVE('',#306,#290,#311,.T.) ;
#332=EDGE_CURVE('',#292,#290,#331,.T.) ;
#337=EDGE_CURVE('',#299,#306,#336,.T.) ;
#64=EDGE_LOOP('',(#65,#66,#67,#68)) ;
#95=EDGE_LOOP('',(#96,#97,#98,#99)) ;
#126=EDGE_LOOP('',(#127,#128,#129,#130)) ;
#148=EDGE_LOOP('',(#149,#150,#151,#152)) ;
#188=EDGE_LOOP('',(#189,#190,#191,#192)) ;
#213=EDGE_LOOP('',(#214,#215,#216,#217)) ;
#254=EDGE_LOOP('',(#255,#256,#257,#258)) ;
#272=EDGE_LOOP('',(#273,#274,#275,#276)) ;
#313=EDGE_LOOP('',(#314,#315,#316,#317)) ;
#338=EDGE_LOOP('',(#339,#340,#341,#342)) ;
#351=EDGE_LOOP('',(#352,#353,#354,#355)) ;
#357=EDGE_LOOP('',(#358,#359)) ;
#361=EDGE_LOOP('',(#362,#363)) ;
#365=EDGE_LOOP('',(#366,#367)) ;
#375=EDGE_LOOP('',(#376,#377,#378,#379)) ;
#381=EDGE_LOOP('',(#382,#383)) ;
#385=EDGE_LOOP('',(#386,#387)) ;
#389=EDGE_LOOP('',(#390,#391)) ;
#69=FACE_OUTER_BOUND('',#64,.T.) ;
#100=FACE_OUTER_BOUND('',#95,.T.) ;
#131=FACE_OUTER_BOUND('',#126,.T.) ;
#153=FACE_OUTER_BOUND('',#148,.T.) ;
#193=FACE_OUTER_BOUND('',#188,.T.) ;
#218=FACE_OUTER_BOUND('',#213,.T.) ;
#259=FACE_OUTER_BOUND('',#254,.T.) ;
#277=FACE_OUTER_BOUND('',#272,.T.) ;
#318=FACE_OUTER_BOUND('',#313,.T.) ;
#343=FACE_OUTER_BOUND('',#338,.T.) ;
#356=FACE_OUTER_BOUND('',#351,.T.) ;
#380=FACE_OUTER_BOUND('',#375,.T.) ;
#39=LINE('Line',#36,#38) ;
#48=LINE('Line',#45,#47) ;
#55=LINE('Line',#52,#54) ;
#62=LINE('Line',#59,#61) ;
#79=LINE('Line',#76,#78) ;
#86=LINE('Line',#83,#85) ;
#93=LINE('Line',#90,#92) ;
#110=LINE('Line',#107,#109) ;
#117=LINE('Line',#114,#116) ;
#124=LINE('Line',#121,#123) ;
#141=LINE('Line',#138,#140) ;
#146=LINE('Line',#143,#145) ;
#172=LINE('Line',#169,#171) ;
#186=LINE('Line',#183,#185) ;
#238=LINE('Line',#235,#237) ;
#252=LINE('Line',#249,#251) ;
#297=LINE('Line',#294,#296) ;
#311=LINE('Line',#308,#310) ;
#35=PLANE('',#34) ;
#75=PLANE('',#74) ;
#106=PLANE('',#105) ;
#137=PLANE('',#136) ;
#350=PLANE('',#349) ;
#374=PLANE('',#373) ;
#9=PRODUCT_CATEGORY_RELATIONSHIP(' ',' ',#7,#8) ;
#6=PRODUCT_DEFINITION_FORMATION_WITH_SPECIFIED_SOURCE('00',' ',#5,.NOT_KNOWN.) ;
#20=SHAPE_DEFINITION_REPRESENTATION(#11,#19) ;
#41=VERTEX_POINT('',#40) ;
#43=VERTEX_POINT('',#42) ;
#50=VERTEX_POINT('',#49) ;
#57=VERTEX_POINT('',#56) ;
#81=VERTEX_POINT('',#80) ;
#88=VERTEX_POINT('',#87) ;
#112=VERTEX_POINT('',#111) ;
#119=VERTEX_POINT('',#118) ;
#165=VERTEX_POINT('',#164) ;
#167=VERTEX_POINT('',#166) ;
#174=VERTEX_POINT('',#173) ;
#181=VERTEX_POINT('',#180) ;
#231=VERTEX_POINT('',#230) ;
#233=VERTEX_POINT('',#232) ;
#240=VERTEX_POINT('',#239) ;
#247=VERTEX_POINT('',#246) ;
#290=VERTEX_POINT('',#289) ;
#292=VERTEX_POINT('',#291) ;
#299=VERTEX_POINT('',#298) ;
#306=VERTEX_POINT('',#305) ;
#12=(LENGTH_UNIT()NAMED_UNIT(*)SI_UNIT(.MILLI.,.METRE.)) ;
#13=(NAMED_UNIT(*)PLANE_ANGLE_UNIT()SI_UNIT($,.RADIAN.)) ;
#14=(NAMED_UNIT(*)SI_UNIT($,.STERADIAN.)SOLID_ANGLE_UNIT()) ;
#16=(GEOMETRIC_REPRESENTATION_CONTEXT(3)GLOBAL_UNCERTAINTY_ASSIGNED_CONTEXT((#15))GLOBAL_UNIT_ASSIGNED_CONTEXT((#12,#13,#14))REPRESENTATION_CONTEXT(' ',' ')) ;
ENDSEC;
END-ISO-10303-21;
