ISO-10303-21;
HEADER;
FILE_DESCRIPTION(('CATIA V5 STEP Exchange','CAx-IF Rec.Pracs.--- Model Styling and Organization---1.4--- 2014-01-23'),'2;1');

FILE_NAME('G:\\Konstruktion\\VB4-Greifer\\CAD-CATIA_V5_FERTIGUNGSDATEN\\02_Datenblatterstellung_extern\\01_TOS-Datenblaetter_20210315\\02_3D-data\\TOS_110_460056_00.stp','2021-06-08T10:44:15+00:00',('none'),('none'),'CATIA Version 5-6 Release 2018 SP3 HF13','CATIA V5 STEP AP214','none');

FILE_SCHEMA(('AUTOMOTIVE_DESIGN { 1 0 10303 214 1 1 1 1 }'));

ENDSEC;
DATA;
#5=PRODUCT('TOS_110_460056_00','TOS_110_460056_00','',(#2)) ;
#2=PRODUCT_CONTEXT(' ',#1,'mechanical') ;
#1=APPLICATION_CONTEXT('automotive design') ;
#10=PRODUCT_DEFINITION('',' ',#6,#3) ;
#3=PRODUCT_DEFINITION_CONTEXT('part definition',#1,' ') ;
#11=PRODUCT_DEFINITION_SHAPE(' ',' ',#10) ;
#396=MECHANICAL_DESIGN_GEOMETRIC_PRESENTATION_REPRESENTATION(' ',(#29),#16) ;
#19=SHAPE_REPRESENTATION(' ',(#18),#16) ;
#18=AXIS2_PLACEMENT_3D(' ',#17,$,$) ;
#34=AXIS2_PLACEMENT_3D('Plane Axis2P3D',#31,#32,#33) ;
#38=AXIS2_PLACEMENT_3D('Circle Axis2P3D',#36,#37,$) ;
#47=AXIS2_PLACEMENT_3D('Circle Axis2P3D',#45,#46,$) ;
#56=AXIS2_PLACEMENT_3D('Circle Axis2P3D',#54,#55,$) ;
#65=AXIS2_PLACEMENT_3D('Circle Axis2P3D',#63,#64,$) ;
#76=AXIS2_PLACEMENT_3D('Cylinder Axis2P3D',#73,#74,#75) ;
#94=AXIS2_PLACEMENT_3D('Circle Axis2P3D',#92,#93,$) ;
#106=AXIS2_PLACEMENT_3D('Circle Axis2P3D',#104,#105,$) ;
#119=AXIS2_PLACEMENT_3D('Plane Axis2P3D',#116,#117,#118) ;
#123=AXIS2_PLACEMENT_3D('Circle Axis2P3D',#121,#122,$) ;
#132=AXIS2_PLACEMENT_3D('Circle Axis2P3D',#130,#131,$) ;
#141=AXIS2_PLACEMENT_3D('Circle Axis2P3D',#139,#140,$) ;
#150=AXIS2_PLACEMENT_3D('Circle Axis2P3D',#148,#149,$) ;
#161=AXIS2_PLACEMENT_3D('Cone Axis2P3D',#158,#159,#160) ;
#183=AXIS2_PLACEMENT_3D('Cone Axis2P3D',#180,#181,#182) ;
#195=AXIS2_PLACEMENT_3D('Plane Axis2P3D',#192,#193,#194) ;
#199=AXIS2_PLACEMENT_3D('Circle Axis2P3D',#197,#198,$) ;
#208=AXIS2_PLACEMENT_3D('Circle Axis2P3D',#206,#207,$) ;
#219=AXIS2_PLACEMENT_3D('Cylinder Axis2P3D',#216,#217,#218) ;
#237=AXIS2_PLACEMENT_3D('Circle Axis2P3D',#235,#236,$) ;
#249=AXIS2_PLACEMENT_3D('Circle Axis2P3D',#247,#248,$) ;
#262=AXIS2_PLACEMENT_3D('Cone Axis2P3D',#259,#260,#261) ;
#284=AXIS2_PLACEMENT_3D('Cone Axis2P3D',#281,#282,#283) ;
#296=AXIS2_PLACEMENT_3D('Cylinder Axis2P3D',#293,#294,#295) ;
#300=AXIS2_PLACEMENT_3D('Circle Axis2P3D',#298,#299,$) ;
#327=AXIS2_PLACEMENT_3D('Cylinder Axis2P3D',#324,#325,#326) ;
#331=AXIS2_PLACEMENT_3D('Circle Axis2P3D',#329,#330,$) ;
#343=AXIS2_PLACEMENT_3D('Circle Axis2P3D',#341,#342,$) ;
#352=AXIS2_PLACEMENT_3D('Circle Axis2P3D',#350,#351,$) ;
#363=AXIS2_PLACEMENT_3D('Torus Axis2P3D',#360,#361,#362) ;
#367=AXIS2_PLACEMENT_3D('Circle Axis2P3D',#365,#366,$) ;
#372=AXIS2_PLACEMENT_3D('Circle Axis2P3D',#370,#371,$) ;
#385=AXIS2_PLACEMENT_3D('Torus Axis2P3D',#382,#383,#384) ;
#17=CARTESIAN_POINT(' ',(0.,0.,0.)) ;
#31=CARTESIAN_POINT('Axis2P3D Location',(0.,0.,0.)) ;
#36=CARTESIAN_POINT('Axis2P3D Location',(0.,0.,0.)) ;
#40=CARTESIAN_POINT('Vertex',(0.,33.,0.)) ;
#42=CARTESIAN_POINT('Vertex',(0.,-33.,4.04133443719E-015)) ;
#45=CARTESIAN_POINT('Axis2P3D Location',(0.,0.,0.)) ;
#54=CARTESIAN_POINT('Axis2P3D Location',(0.,0.,0.)) ;
#58=CARTESIAN_POINT('Vertex',(0.,-24.,2.93915231795E-015)) ;
#60=CARTESIAN_POINT('Vertex',(0.,24.,0.)) ;
#63=CARTESIAN_POINT('Axis2P3D Location',(0.,0.,0.)) ;
#73=CARTESIAN_POINT('Axis2P3D Location',(7.5,0.,0.)) ;
#78=CARTESIAN_POINT('Line Origine',(7.5,-24.,2.93915231795E-015)) ;
#82=CARTESIAN_POINT('Vertex',(13.5,-24.,2.93915231795E-015)) ;
#85=CARTESIAN_POINT('Line Origine',(7.5,24.,-5.87830463591E-015)) ;
#89=CARTESIAN_POINT('Vertex',(13.5,24.,-5.87830463591E-015)) ;
#92=CARTESIAN_POINT('Axis2P3D Location',(13.5,0.,0.)) ;
#104=CARTESIAN_POINT('Axis2P3D Location',(13.5,0.,0.)) ;
#116=CARTESIAN_POINT('Axis2P3D Location',(15.,0.,0.)) ;
#121=CARTESIAN_POINT('Axis2P3D Location',(15.,-4.99600361081E-015,4.4408920985E-016)) ;
#125=CARTESIAN_POINT('Vertex',(15.,23.1339745962,-3.86336522426E-015)) ;
#127=CARTESIAN_POINT('Vertex',(15.,-23.1339745962,-1.16373709809E-007)) ;
#130=CARTESIAN_POINT('Axis2P3D Location',(15.,-3.5527136788E-015,1.8028243639E-015)) ;
#139=CARTESIAN_POINT('Axis2P3D Location',(15.,0.,0.)) ;
#143=CARTESIAN_POINT('Vertex',(15.,22.,0.)) ;
#145=CARTESIAN_POINT('Vertex',(15.,-22.,1.24641855748E-014)) ;
#148=CARTESIAN_POINT('Axis2P3D Location',(15.,0.,0.)) ;
#158=CARTESIAN_POINT('Axis2P3D Location',(55.0692193817,-4.7451487932E-014,9.4902975864E-014)) ;
#163=CARTESIAN_POINT('Line Origine',(14.25,23.5669872981,1.71225808319E-015)) ;
#168=CARTESIAN_POINT('Line Origine',(14.25,-23.5669872981,6.64393478378E-015)) ;
#180=CARTESIAN_POINT('Axis2P3D Location',(55.0692193817,-4.7451487932E-014,-2.16196230953E-013)) ;
#192=CARTESIAN_POINT('Axis2P3D Location',(-2.5,0.,0.)) ;
#197=CARTESIAN_POINT('Axis2P3D Location',(-2.5,-3.27515792264E-015,1.7763568394E-015)) ;
#201=CARTESIAN_POINT('Vertex',(-2.5,32.,-1.62049057664E-015)) ;
#203=CARTESIAN_POINT('Vertex',(-2.5,-32.,7.30099023383E-007)) ;
#206=CARTESIAN_POINT('Axis2P3D Location',(-2.5,1.55431223448E-015,6.2172489379E-015)) ;
#216=CARTESIAN_POINT('Axis2P3D Location',(-1.25,0.,0.)) ;
#221=CARTESIAN_POINT('Line Origine',(-1.25,33.,-8.08266887437E-015)) ;
#225=CARTESIAN_POINT('Vertex',(-1.5,33.,-8.08266887437E-015)) ;
#228=CARTESIAN_POINT('Line Origine',(-1.25,-33.,4.04133443719E-015)) ;
#232=CARTESIAN_POINT('Vertex',(-1.5,-33.,4.04133443719E-015)) ;
#235=CARTESIAN_POINT('Axis2P3D Location',(-1.5,0.,0.)) ;
#247=CARTESIAN_POINT('Axis2P3D Location',(-1.5,0.,0.)) ;
#259=CARTESIAN_POINT('Axis2P3D Location',(-34.5,2.85993451143E-013,-7.1054273576E-015)) ;
#264=CARTESIAN_POINT('Line Origine',(-2.,-32.5,4.53510795584E-007)) ;
#269=CARTESIAN_POINT('Line Origine',(-2.,32.5,4.97379915032E-014)) ;
#281=CARTESIAN_POINT('Axis2P3D Location',(-34.5,-2.30926389122E-013,6.89226453687E-013)) ;
#293=CARTESIAN_POINT('Axis2P3D Location',(7.5,0.,0.)) ;
#298=CARTESIAN_POINT('Axis2P3D Location',(1.5,0.,0.)) ;
#302=CARTESIAN_POINT('Vertex',(1.5,-22.,1.24641855748E-014)) ;
#304=CARTESIAN_POINT('Vertex',(1.5,22.,0.)) ;
#307=CARTESIAN_POINT('Line Origine',(7.5,22.,0.)) ;
#312=CARTESIAN_POINT('Line Origine',(7.5,-22.,1.24641855748E-014)) ;
#324=CARTESIAN_POINT('Axis2P3D Location',(7.5,0.,0.)) ;
#329=CARTESIAN_POINT('Axis2P3D Location',(1.5,0.,0.)) ;
#341=CARTESIAN_POINT('Axis2P3D Location',(0.,-2.11065358899E-015,-3.5527136788E-015)) ;
#345=CARTESIAN_POINT('Vertex',(0.,20.5,1.28697640947E-007)) ;
#347=CARTESIAN_POINT('Vertex',(0.,-20.5,-3.17429946092E-008)) ;
#350=CARTESIAN_POINT('Axis2P3D Location',(0.,7.77156117238E-016,-2.49193027324E-015)) ;
#360=CARTESIAN_POINT('Axis2P3D Location',(1.5,1.7763568394E-015,-4.4408920985E-015)) ;
#365=CARTESIAN_POINT('Axis2P3D Location',(1.5,-20.5,8.07687250415E-015)) ;
#370=CARTESIAN_POINT('Axis2P3D Location',(1.5,20.5,-3.40283357048E-014)) ;
#382=CARTESIAN_POINT('Axis2P3D Location',(1.5,0.,-2.6645352591E-015)) ;
#32=DIRECTION('Axis2P3D Direction',(1.,0.,0.)) ;
#33=DIRECTION('Axis2P3D XDirection',(0.,1.,0.)) ;
#37=DIRECTION('Axis2P3D Direction',(1.,0.,0.)) ;
#46=DIRECTION('Axis2P3D Direction',(1.,0.,0.)) ;
#55=DIRECTION('Axis2P3D Direction',(1.,0.,0.)) ;
#64=DIRECTION('Axis2P3D Direction',(1.,0.,0.)) ;
#74=DIRECTION('Axis2P3D Direction',(1.,0.,0.)) ;
#75=DIRECTION('Axis2P3D XDirection',(0.,1.,0.)) ;
#79=DIRECTION('Vector Direction',(1.,0.,0.)) ;
#86=DIRECTION('Vector Direction',(1.,0.,0.)) ;
#93=DIRECTION('Axis2P3D Direction',(1.,0.,0.)) ;
#105=DIRECTION('Axis2P3D Direction',(1.,0.,0.)) ;
#117=DIRECTION('Axis2P3D Direction',(1.,0.,0.)) ;
#118=DIRECTION('Axis2P3D XDirection',(0.,1.,0.)) ;
#122=DIRECTION('Axis2P3D Direction',(1.,0.,0.)) ;
#131=DIRECTION('Axis2P3D Direction',(1.,0.,0.)) ;
#140=DIRECTION('Axis2P3D Direction',(1.,0.,0.)) ;
#149=DIRECTION('Axis2P3D Direction',(1.,0.,0.)) ;
#159=DIRECTION('Axis2P3D Direction',(-1.,1.18423789293E-015,-2.36847578587E-015)) ;
#160=DIRECTION('Axis2P3D XDirection',(1.11758708954E-015,1.,2.09262076574E-016)) ;
#164=DIRECTION('Vector Direction',(-0.866025403784,0.5,-1.9771453305E-015)) ;
#169=DIRECTION('Vector Direction',(-0.866025403784,-0.5,-1.87251429221E-015)) ;
#181=DIRECTION('Axis2P3D Direction',(-1.,1.18423789293E-015,5.3290705182E-015)) ;
#182=DIRECTION('Axis2P3D XDirection',(1.49011611938E-015,-0.88647333082,0.462779681646)) ;
#193=DIRECTION('Axis2P3D Direction',(1.,0.,0.)) ;
#194=DIRECTION('Axis2P3D XDirection',(0.,1.,0.)) ;
#198=DIRECTION('Axis2P3D Direction',(1.,0.,0.)) ;
#207=DIRECTION('Axis2P3D Direction',(1.,0.,0.)) ;
#217=DIRECTION('Axis2P3D Direction',(1.,0.,0.)) ;
#218=DIRECTION('Axis2P3D XDirection',(0.,1.,0.)) ;
#222=DIRECTION('Vector Direction',(1.,0.,0.)) ;
#229=DIRECTION('Vector Direction',(1.,0.,0.)) ;
#236=DIRECTION('Axis2P3D Direction',(1.,0.,0.)) ;
#248=DIRECTION('Axis2P3D Direction',(1.,0.,0.)) ;
#260=DIRECTION('Axis2P3D Direction',(1.,-8.881784197E-015,0.)) ;
#261=DIRECTION('Axis2P3D XDirection',(-8.69278750537E-015,-0.974045032469,0.226354312355)) ;
#265=DIRECTION('Vector Direction',(0.707106781187,-0.707106781187,9.86709344361E-009)) ;
#270=DIRECTION('Vector Direction',(0.707106781187,0.707106781187,1.25607396695E-015)) ;
#282=DIRECTION('Axis2P3D Direction',(1.,7.1054273576E-015,-2.13162820728E-014)) ;
#283=DIRECTION('Axis2P3D XDirection',(-7.11228068621E-015,1.,4.91864301024E-016)) ;
#294=DIRECTION('Axis2P3D Direction',(1.,0.,0.)) ;
#295=DIRECTION('Axis2P3D XDirection',(0.,1.,0.)) ;
#299=DIRECTION('Axis2P3D Direction',(1.,0.,0.)) ;
#308=DIRECTION('Vector Direction',(1.,0.,0.)) ;
#313=DIRECTION('Vector Direction',(1.,0.,0.)) ;
#325=DIRECTION('Axis2P3D Direction',(1.,0.,0.)) ;
#326=DIRECTION('Axis2P3D XDirection',(0.,-1.,5.66553889765E-016)) ;
#330=DIRECTION('Axis2P3D Direction',(1.,0.,0.)) ;
#342=DIRECTION('Axis2P3D Direction',(1.,0.,0.)) ;
#351=DIRECTION('Axis2P3D Direction',(1.,0.,0.)) ;
#361=DIRECTION('Axis2P3D Direction',(1.,0.,-0.)) ;
#362=DIRECTION('Axis2P3D XDirection',(0.,-0.889618009494,0.456705372405)) ;
#366=DIRECTION('Axis2P3D Direction',(0.,6.10622663544E-016,1.)) ;
#371=DIRECTION('Axis2P3D Direction',(0.,-1.44328993201E-015,-1.)) ;
#383=DIRECTION('Axis2P3D Direction',(1.,-0.,0.)) ;
#384=DIRECTION('Axis2P3D XDirection',(0.,0.905865985849,-0.423564417393)) ;
#8=PRODUCT_RELATED_PRODUCT_CATEGORY('part',$,(#5)) ;
#7=PRODUCT_CATEGORY('part','specification') ;
#29=STYLED_ITEM(' ',(#28),#21) ;
#28=PRESENTATION_STYLE_ASSIGNMENT((#27)) ;
#27=SURFACE_STYLE_USAGE(.BOTH.,#26) ;
#26=SURFACE_SIDE_STYLE(' ',(#25)) ;
#25=SURFACE_STYLE_FILL_AREA(#24) ;
#24=FILL_AREA_STYLE(' ',(#23)) ;
#23=FILL_AREA_STYLE_COLOUR(' ',#22) ;
#80=VECTOR('Line Direction',#79,1.) ;
#87=VECTOR('Line Direction',#86,1.) ;
#165=VECTOR('Line Direction',#164,1.) ;
#170=VECTOR('Line Direction',#169,1.) ;
#223=VECTOR('Line Direction',#222,1.) ;
#230=VECTOR('Line Direction',#229,1.) ;
#266=VECTOR('Line Direction',#265,1.) ;
#271=VECTOR('Line Direction',#270,1.) ;
#309=VECTOR('Line Direction',#308,1.) ;
#314=VECTOR('Line Direction',#313,1.) ;
#15=UNCERTAINTY_MEASURE_WITH_UNIT(LENGTH_MEASURE(0.005),#12,'distance_accuracy_value','CONFUSED CURVE UNCERTAINTY') ;
#395=SHAPE_REPRESENTATION_RELATIONSHIP(' ',' ',#19,#394) ;
#51=ORIENTED_EDGE('',*,*,#44,.T.) ;
#52=ORIENTED_EDGE('',*,*,#49,.T.) ;
#69=ORIENTED_EDGE('',*,*,#62,.F.) ;
#70=ORIENTED_EDGE('',*,*,#67,.F.) ;
#98=ORIENTED_EDGE('',*,*,#84,.F.) ;
#99=ORIENTED_EDGE('',*,*,#62,.T.) ;
#100=ORIENTED_EDGE('',*,*,#91,.T.) ;
#101=ORIENTED_EDGE('',*,*,#96,.F.) ;
#110=ORIENTED_EDGE('',*,*,#91,.F.) ;
#111=ORIENTED_EDGE('',*,*,#67,.T.) ;
#112=ORIENTED_EDGE('',*,*,#84,.T.) ;
#113=ORIENTED_EDGE('',*,*,#108,.F.) ;
#136=ORIENTED_EDGE('',*,*,#129,.T.) ;
#137=ORIENTED_EDGE('',*,*,#134,.T.) ;
#154=ORIENTED_EDGE('',*,*,#147,.F.) ;
#155=ORIENTED_EDGE('',*,*,#152,.F.) ;
#174=ORIENTED_EDGE('',*,*,#167,.T.) ;
#175=ORIENTED_EDGE('',*,*,#108,.T.) ;
#176=ORIENTED_EDGE('',*,*,#172,.F.) ;
#177=ORIENTED_EDGE('',*,*,#129,.F.) ;
#186=ORIENTED_EDGE('',*,*,#172,.T.) ;
#187=ORIENTED_EDGE('',*,*,#96,.T.) ;
#188=ORIENTED_EDGE('',*,*,#167,.F.) ;
#189=ORIENTED_EDGE('',*,*,#134,.F.) ;
#212=ORIENTED_EDGE('',*,*,#205,.F.) ;
#213=ORIENTED_EDGE('',*,*,#210,.F.) ;
#241=ORIENTED_EDGE('',*,*,#227,.F.) ;
#242=ORIENTED_EDGE('',*,*,#49,.F.) ;
#243=ORIENTED_EDGE('',*,*,#234,.T.) ;
#244=ORIENTED_EDGE('',*,*,#239,.T.) ;
#253=ORIENTED_EDGE('',*,*,#234,.F.) ;
#254=ORIENTED_EDGE('',*,*,#44,.F.) ;
#255=ORIENTED_EDGE('',*,*,#227,.T.) ;
#256=ORIENTED_EDGE('',*,*,#251,.T.) ;
#275=ORIENTED_EDGE('',*,*,#268,.T.) ;
#276=ORIENTED_EDGE('',*,*,#210,.T.) ;
#277=ORIENTED_EDGE('',*,*,#273,.F.) ;
#278=ORIENTED_EDGE('',*,*,#239,.F.) ;
#287=ORIENTED_EDGE('',*,*,#273,.T.) ;
#288=ORIENTED_EDGE('',*,*,#205,.T.) ;
#289=ORIENTED_EDGE('',*,*,#268,.F.) ;
#290=ORIENTED_EDGE('',*,*,#251,.F.) ;
#318=ORIENTED_EDGE('',*,*,#306,.T.) ;
#319=ORIENTED_EDGE('',*,*,#311,.T.) ;
#320=ORIENTED_EDGE('',*,*,#147,.T.) ;
#321=ORIENTED_EDGE('',*,*,#316,.F.) ;
#335=ORIENTED_EDGE('',*,*,#333,.T.) ;
#336=ORIENTED_EDGE('',*,*,#316,.T.) ;
#337=ORIENTED_EDGE('',*,*,#152,.T.) ;
#338=ORIENTED_EDGE('',*,*,#311,.F.) ;
#356=ORIENTED_EDGE('',*,*,#349,.F.) ;
#357=ORIENTED_EDGE('',*,*,#354,.F.) ;
#376=ORIENTED_EDGE('',*,*,#349,.T.) ;
#377=ORIENTED_EDGE('',*,*,#369,.T.) ;
#378=ORIENTED_EDGE('',*,*,#333,.F.) ;
#379=ORIENTED_EDGE('',*,*,#374,.F.) ;
#388=ORIENTED_EDGE('',*,*,#354,.T.) ;
#389=ORIENTED_EDGE('',*,*,#374,.T.) ;
#390=ORIENTED_EDGE('',*,*,#306,.F.) ;
#391=ORIENTED_EDGE('',*,*,#369,.F.) ;
#71=FACE_BOUND('',#68,.T.) ;
#156=FACE_BOUND('',#153,.T.) ;
#30=CLOSED_SHELL('Closed Shell',(#72,#103,#115,#157,#179,#191,#215,#246,#258,#280,#292,#323,#340,#359,#381,#393)) ;
#394=ADVANCED_BREP_SHAPE_REPRESENTATION('NONE',(#21),#16) ;
#72=ADVANCED_FACE('PartBody',(#53,#71),#35,.T.) ;
#103=ADVANCED_FACE('PartBody',(#102),#77,.T.) ;
#115=ADVANCED_FACE('PartBody',(#114),#77,.T.) ;
#157=ADVANCED_FACE('PartBody',(#138,#156),#120,.T.) ;
#179=ADVANCED_FACE('PartBody',(#178),#162,.T.) ;
#191=ADVANCED_FACE('PartBody',(#190),#184,.T.) ;
#215=ADVANCED_FACE('PartBody',(#214),#196,.F.) ;
#246=ADVANCED_FACE('PartBody',(#245),#220,.T.) ;
#258=ADVANCED_FACE('PartBody',(#257),#220,.T.) ;
#280=ADVANCED_FACE('PartBody',(#279),#263,.T.) ;
#292=ADVANCED_FACE('PartBody',(#291),#285,.T.) ;
#323=ADVANCED_FACE('PartBody',(#322),#297,.F.) ;
#340=ADVANCED_FACE('PartBody',(#339),#328,.F.) ;
#359=ADVANCED_FACE('PartBody',(#358),#35,.T.) ;
#381=ADVANCED_FACE('PartBody',(#380),#364,.F.) ;
#393=ADVANCED_FACE('PartBody',(#392),#386,.F.) ;
#4=APPLICATION_PROTOCOL_DEFINITION('international standard','automotive_design',2001,#1) ;
#21=MANIFOLD_SOLID_BREP('PartBody',#30) ;
#39=CIRCLE('generated circle',#38,33.) ;
#48=CIRCLE('generated circle',#47,33.) ;
#57=CIRCLE('generated circle',#56,24.) ;
#66=CIRCLE('generated circle',#65,24.) ;
#95=CIRCLE('generated circle',#94,24.) ;
#107=CIRCLE('generated circle',#106,24.) ;
#124=CIRCLE('generated circle',#123,23.1339745962) ;
#133=CIRCLE('generated circle',#132,23.1339745962) ;
#142=CIRCLE('generated circle',#141,22.) ;
#151=CIRCLE('generated circle',#150,22.) ;
#200=CIRCLE('generated circle',#199,32.) ;
#209=CIRCLE('generated circle',#208,32.) ;
#238=CIRCLE('generated circle',#237,33.) ;
#250=CIRCLE('generated circle',#249,33.) ;
#301=CIRCLE('generated circle',#300,22.) ;
#332=CIRCLE('generated circle',#331,22.) ;
#344=CIRCLE('generated circle',#343,20.5) ;
#353=CIRCLE('generated circle',#352,20.5) ;
#368=CIRCLE('generated circle',#367,1.5) ;
#373=CIRCLE('generated circle',#372,1.5) ;
#162=CONICAL_SURFACE('Cone',#161,0.,0.523598775598) ;
#184=CONICAL_SURFACE('Cone',#183,0.,0.523598775598) ;
#263=CONICAL_SURFACE('Cone',#262,0.,0.785398163397) ;
#285=CONICAL_SURFACE('Cone',#284,0.,0.785398163397) ;
#77=CYLINDRICAL_SURFACE('generated cylinder',#76,24.) ;
#220=CYLINDRICAL_SURFACE('generated cylinder',#219,33.) ;
#297=CYLINDRICAL_SURFACE('generated cylinder',#296,22.) ;
#328=CYLINDRICAL_SURFACE('generated cylinder',#327,22.) ;
#364=TOROIDAL_SURFACE('homeo Torus',#363,20.5,1.5) ;
#386=TOROIDAL_SURFACE('homeo Torus',#385,20.5,1.5) ;
#22=DRAUGHTING_PRE_DEFINED_COLOUR('yellow') ;
#44=EDGE_CURVE('',#41,#43,#39,.T.) ;
#49=EDGE_CURVE('',#43,#41,#48,.T.) ;
#62=EDGE_CURVE('',#59,#61,#57,.T.) ;
#67=EDGE_CURVE('',#61,#59,#66,.T.) ;
#84=EDGE_CURVE('',#59,#83,#81,.T.) ;
#91=EDGE_CURVE('',#61,#90,#88,.T.) ;
#96=EDGE_CURVE('',#83,#90,#95,.T.) ;
#108=EDGE_CURVE('',#90,#83,#107,.T.) ;
#129=EDGE_CURVE('',#126,#128,#124,.T.) ;
#134=EDGE_CURVE('',#128,#126,#133,.T.) ;
#147=EDGE_CURVE('',#144,#146,#142,.T.) ;
#152=EDGE_CURVE('',#146,#144,#151,.T.) ;
#167=EDGE_CURVE('',#126,#90,#166,.T.) ;
#172=EDGE_CURVE('',#128,#83,#171,.T.) ;
#205=EDGE_CURVE('',#202,#204,#200,.T.) ;
#210=EDGE_CURVE('',#204,#202,#209,.T.) ;
#227=EDGE_CURVE('',#41,#226,#224,.F.) ;
#234=EDGE_CURVE('',#43,#233,#231,.F.) ;
#239=EDGE_CURVE('',#233,#226,#238,.T.) ;
#251=EDGE_CURVE('',#226,#233,#250,.T.) ;
#268=EDGE_CURVE('',#233,#204,#267,.F.) ;
#273=EDGE_CURVE('',#226,#202,#272,.F.) ;
#306=EDGE_CURVE('',#303,#305,#301,.F.) ;
#311=EDGE_CURVE('',#305,#144,#310,.T.) ;
#316=EDGE_CURVE('',#303,#146,#315,.T.) ;
#333=EDGE_CURVE('',#305,#303,#332,.F.) ;
#349=EDGE_CURVE('',#346,#348,#344,.F.) ;
#354=EDGE_CURVE('',#348,#346,#353,.F.) ;
#369=EDGE_CURVE('',#348,#303,#368,.T.) ;
#374=EDGE_CURVE('',#346,#305,#373,.T.) ;
#50=EDGE_LOOP('',(#51,#52)) ;
#68=EDGE_LOOP('',(#69,#70)) ;
#97=EDGE_LOOP('',(#98,#99,#100,#101)) ;
#109=EDGE_LOOP('',(#110,#111,#112,#113)) ;
#135=EDGE_LOOP('',(#136,#137)) ;
#153=EDGE_LOOP('',(#154,#155)) ;
#173=EDGE_LOOP('',(#174,#175,#176,#177)) ;
#185=EDGE_LOOP('',(#186,#187,#188,#189)) ;
#211=EDGE_LOOP('',(#212,#213)) ;
#240=EDGE_LOOP('',(#241,#242,#243,#244)) ;
#252=EDGE_LOOP('',(#253,#254,#255,#256)) ;
#274=EDGE_LOOP('',(#275,#276,#277,#278)) ;
#286=EDGE_LOOP('',(#287,#288,#289,#290)) ;
#317=EDGE_LOOP('',(#318,#319,#320,#321)) ;
#334=EDGE_LOOP('',(#335,#336,#337,#338)) ;
#355=EDGE_LOOP('',(#356,#357)) ;
#375=EDGE_LOOP('',(#376,#377,#378,#379)) ;
#387=EDGE_LOOP('',(#388,#389,#390,#391)) ;
#53=FACE_OUTER_BOUND('',#50,.T.) ;
#102=FACE_OUTER_BOUND('',#97,.T.) ;
#114=FACE_OUTER_BOUND('',#109,.T.) ;
#138=FACE_OUTER_BOUND('',#135,.T.) ;
#178=FACE_OUTER_BOUND('',#173,.T.) ;
#190=FACE_OUTER_BOUND('',#185,.T.) ;
#214=FACE_OUTER_BOUND('',#211,.T.) ;
#245=FACE_OUTER_BOUND('',#240,.T.) ;
#257=FACE_OUTER_BOUND('',#252,.T.) ;
#279=FACE_OUTER_BOUND('',#274,.T.) ;
#291=FACE_OUTER_BOUND('',#286,.T.) ;
#322=FACE_OUTER_BOUND('',#317,.T.) ;
#339=FACE_OUTER_BOUND('',#334,.T.) ;
#358=FACE_OUTER_BOUND('',#355,.T.) ;
#380=FACE_OUTER_BOUND('',#375,.T.) ;
#392=FACE_OUTER_BOUND('',#387,.T.) ;
#81=LINE('Line',#78,#80) ;
#88=LINE('Line',#85,#87) ;
#166=LINE('Line',#163,#165) ;
#171=LINE('Line',#168,#170) ;
#224=LINE('Line',#221,#223) ;
#231=LINE('Line',#228,#230) ;
#267=LINE('Line',#264,#266) ;
#272=LINE('Line',#269,#271) ;
#310=LINE('Line',#307,#309) ;
#315=LINE('Line',#312,#314) ;
#35=PLANE('',#34) ;
#120=PLANE('',#119) ;
#196=PLANE('',#195) ;
#9=PRODUCT_CATEGORY_RELATIONSHIP(' ',' ',#7,#8) ;
#6=PRODUCT_DEFINITION_FORMATION_WITH_SPECIFIED_SOURCE('00',' ',#5,.NOT_KNOWN.) ;
#20=SHAPE_DEFINITION_REPRESENTATION(#11,#19) ;
#41=VERTEX_POINT('',#40) ;
#43=VERTEX_POINT('',#42) ;
#59=VERTEX_POINT('',#58) ;
#61=VERTEX_POINT('',#60) ;
#83=VERTEX_POINT('',#82) ;
#90=VERTEX_POINT('',#89) ;
#126=VERTEX_POINT('',#125) ;
#128=VERTEX_POINT('',#127) ;
#144=VERTEX_POINT('',#143) ;
#146=VERTEX_POINT('',#145) ;
#202=VERTEX_POINT('',#201) ;
#204=VERTEX_POINT('',#203) ;
#226=VERTEX_POINT('',#225) ;
#233=VERTEX_POINT('',#232) ;
#303=VERTEX_POINT('',#302) ;
#305=VERTEX_POINT('',#304) ;
#346=VERTEX_POINT('',#345) ;
#348=VERTEX_POINT('',#347) ;
#12=(LENGTH_UNIT()NAMED_UNIT(*)SI_UNIT(.MILLI.,.METRE.)) ;
#13=(NAMED_UNIT(*)PLANE_ANGLE_UNIT()SI_UNIT($,.RADIAN.)) ;
#14=(NAMED_UNIT(*)SI_UNIT($,.STERADIAN.)SOLID_ANGLE_UNIT()) ;
#16=(GEOMETRIC_REPRESENTATION_CONTEXT(3)GLOBAL_UNCERTAINTY_ASSIGNED_CONTEXT((#15))GLOBAL_UNIT_ASSIGNED_CONTEXT((#12,#13,#14))REPRESENTATION_CONTEXT(' ',' ')) ;
ENDSEC;
END-ISO-10303-21;
